  0
SECTION
  2
HEADER
  9
$ACADVER
  1
AC1024
  9
$ACADMAINTVER
 70
   205
  9
$DWGCODEPAGE
  3
ANSI_1250
  9
$INSBASE
 10
0.0
 20
0.0
 30
0.0
  9
$EXTMIN
 10
1.000000000000000E+20
 20
1.000000000000000E+20
 30
1.000000000000000E+20
  9
$EXTMAX
 10
-1.000000000000000E+20
 20
-1.000000000000000E+20
 30
-1.000000000000000E+20
  9
$LIMMIN
 10
0.0
 20
0.0
  9
$LIMMAX
 10
12.0
 20
9.0
  9
$ORTHOMODE
 70
     0
  9
$REGENMODE
 70
     1
  9
$FILLMODE
 70
     1
  9
$QTEXTMODE
 70
     0
  9
$MIRRTEXT
 70
     1
  9
$LTSCALE
 40
1.0
  9
$ATTMODE
 70
     1
  9
$TEXTSIZE
 40
0.2
  9
$TRACEWID
 40
0.05
  9
$TEXTSTYLE
  7
Standard
  9
$CLAYER
  8
0
  9
$CELTYPE
  6
ByLayer
  9
$CECOLOR
 62
   256
  9
$CELTSCALE
 40
1.0
  9
$DISPSILH
 70
     0
  9
$DIMSCALE
 40
1.0
  9
$DIMASZ
 40
0.18
  9
$DIMEXO
 40
0.0625
  9
$DIMDLI
 40
0.38
  9
$DIMRND
 40
0.0
  9
$DIMDLE
 40
0.0
  9
$DIMEXE
 40
0.18
  9
$DIMTP
 40
0.0
  9
$DIMTM
 40
0.0
  9
$DIMTXT
 40
0.18
  9
$DIMCEN
 40
0.09
  9
$DIMTSZ
 40
0.0
  9
$DIMTOL
 70
     0
  9
$DIMLIM
 70
     0
  9
$DIMTIH
 70
     1
  9
$DIMTOH
 70
     1
  9
$DIMSE1
 70
     0
  9
$DIMSE2
 70
     0
  9
$DIMTAD
 70
     0
  9
$DIMZIN
 70
     0
  9
$DIMBLK
  1

  9
$DIMASO
 70
     1
  9
$DIMSHO
 70
     1
  9
$DIMPOST
  1

  9
$DIMAPOST
  1

  9
$DIMALT
 70
     0
  9
$DIMALTD
 70
     2
  9
$DIMALTF
 40
25.4
  9
$DIMLFAC
 40
1.0
  9
$DIMTOFL
 70
     0
  9
$DIMTVP
 40
0.0
  9
$DIMTIX
 70
     0
  9
$DIMSOXD
 70
     0
  9
$DIMSAH
 70
     0
  9
$DIMBLK1
  1

  9
$DIMBLK2
  1

  9
$DIMSTYLE
  2
Standard
  9
$DIMCLRD
 70
     0
  9
$DIMCLRE
 70
     0
  9
$DIMCLRT
 70
     0
  9
$DIMTFAC
 40
1.0
  9
$DIMGAP
 40
0.09
  9
$DIMJUST
 70
     0
  9
$DIMSD1
 70
     0
  9
$DIMSD2
 70
     0
  9
$DIMTOLJ
 70
     1
  9
$DIMTZIN
 70
     0
  9
$DIMALTZ
 70
     0
  9
$DIMALTTZ
 70
     0
  9
$DIMUPT
 70
     0
  9
$DIMDEC
 70
     4
  9
$DIMTDEC
 70
     4
  9
$DIMALTU
 70
     2
  9
$DIMALTTD
 70
     2
  9
$DIMTXSTY
  7
Standard
  9
$DIMAUNIT
 70
     0
  9
$DIMADEC
 70
     0
  9
$DIMALTRND
 40
0.0
  9
$DIMAZIN
 70
     0
  9
$DIMDSEP
 70
    46
  9
$DIMATFIT
 70
     3
  9
$DIMFRAC
 70
     0
  9
$DIMLDRBLK
  1

  9
$DIMLUNIT
 70
     2
  9
$DIMLWD
 70
    -2
  9
$DIMLWE
 70
    -2
  9
$DIMTMOVE
 70
     0
  9
$DIMFXL
 40
1.0
  9
$DIMFXLON
 70
     0
  9
$DIMJOGANG
 40
0.7853981633974483
  9
$DIMTFILL
 70
     0
  9
$DIMTFILLCLR
 70
     0
  9
$DIMARCSYM
 70
     0
  9
$DIMLTYPE
  6

  9
$DIMLTEX1
  6

  9
$DIMLTEX2
  6

  9
$DIMTXTDIRECTION
 70
     0
  9
$LUNITS
 70
     2
  9
$LUPREC
 70
     4
  9
$SKETCHINC
 40
0.1
  9
$FILLETRAD
 40
0.5
  9
$AUNITS
 70
     0
  9
$AUPREC
 70
     0
  9
$MENU
  1
.
  9
$ELEVATION
 40
0.0
  9
$PELEVATION
 40
0.0
  9
$THICKNESS
 40
0.0
  9
$LIMCHECK
 70
     0
  9
$CHAMFERA
 40
0.5
  9
$CHAMFERB
 40
0.5
  9
$CHAMFERC
 40
1.0
  9
$CHAMFERD
 40
0.0
  9
$SKPOLY
 70
     0
  9
$TDCREATE
 40
2451380.888765729
  9
$TDUCREATE
 40
2451380.805432396
  9
$TDUPDATE
 40
2451380.924513889
  9
$TDUUPDATE
 40
2451380.841180556
  9
$TDINDWG
 40
0.0075616898
  9
$TDUSRTIMER
 40
0.0075526505
  9
$USRTIMER
 70
     1
  9
$ANGBASE
 50
0.0
  9
$ANGDIR
 70
     0
  9
$PDMODE
 70
     0
  9
$PDSIZE
 40
0.0
  9
$PLINEWID
 40
0.0
  9
$SPLFRAME
 70
     0
  9
$SPLINETYPE
 70
     6
  9
$SPLINESEGS
 70
     8
  9
$HANDSEED
  5
13E
  9
$SURFTAB1
 70
     6
  9
$SURFTAB2
 70
     6
  9
$SURFTYPE
 70
     6
  9
$SURFU
 70
     6
  9
$SURFV
 70
     6
  9
$UCSBASE
  2

  9
$UCSNAME
  2

  9
$UCSORG
 10
0.0
 20
0.0
 30
0.0
  9
$UCSXDIR
 10
1.0
 20
0.0
 30
0.0
  9
$UCSYDIR
 10
0.0
 20
1.0
 30
0.0
  9
$UCSORTHOREF
  2

  9
$UCSORTHOVIEW
 70
     0
  9
$UCSORGTOP
 10
0.0
 20
0.0
 30
0.0
  9
$UCSORGBOTTOM
 10
0.0
 20
0.0
 30
0.0
  9
$UCSORGLEFT
 10
0.0
 20
0.0
 30
0.0
  9
$UCSORGRIGHT
 10
0.0
 20
0.0
 30
0.0
  9
$UCSORGFRONT
 10
0.0
 20
0.0
 30
0.0
  9
$UCSORGBACK
 10
0.0
 20
0.0
 30
0.0
  9
$PUCSBASE
  2

  9
$PUCSNAME
  2

  9
$PUCSORG
 10
0.0
 20
0.0
 30
0.0
  9
$PUCSXDIR
 10
1.0
 20
0.0
 30
0.0
  9
$PUCSYDIR
 10
0.0
 20
1.0
 30
0.0
  9
$PUCSORTHOREF
  2

  9
$PUCSORTHOVIEW
 70
     0
  9
$PUCSORGTOP
 10
0.0
 20
0.0
 30
0.0
  9
$PUCSORGBOTTOM
 10
0.0
 20
0.0
 30
0.0
  9
$PUCSORGLEFT
 10
0.0
 20
0.0
 30
0.0
  9
$PUCSORGRIGHT
 10
0.0
 20
0.0
 30
0.0
  9
$PUCSORGFRONT
 10
0.0
 20
0.0
 30
0.0
  9
$PUCSORGBACK
 10
0.0
 20
0.0
 30
0.0
  9
$USERI1
 70
     0
  9
$USERI2
 70
     0
  9
$USERI3
 70
     0
  9
$USERI4
 70
     0
  9
$USERI5
 70
     0
  9
$USERR1
 40
0.0
  9
$USERR2
 40
0.0
  9
$USERR3
 40
0.0
  9
$USERR4
 40
0.0
  9
$USERR5
 40
0.0
  9
$WORLDVIEW
 70
     1
  9
$SHADEDGE
 70
     3
  9
$SHADEDIF
 70
    70
  9
$TILEMODE
 70
     1
  9
$MAXACTVP
 70
    64
  9
$PINSBASE
 10
0.0
 20
0.0
 30
0.0
  9
$PLIMCHECK
 70
     0
  9
$PEXTMIN
 10
1.000000000000000E+20
 20
1.000000000000000E+20
 30
1.000000000000000E+20
  9
$PEXTMAX
 10
-1.000000000000000E+20
 20
-1.000000000000000E+20
 30
-1.000000000000000E+20
  9
$PLIMMIN
 10
0.0
 20
0.0
  9
$PLIMMAX
 10
12.0
 20
9.0
  9
$UNITMODE
 70
     0
  9
$VISRETAIN
 70
     1
  9
$PLINEGEN
 70
     0
  9
$PSLTSCALE
 70
     1
  9
$TREEDEPTH
 70
  3020
  9
$CMLSTYLE
  2
Standard
  9
$CMLJUST
 70
     0
  9
$CMLSCALE
 40
1.0
  9
$PROXYGRAPHICS
 70
     1
  9
$MEASUREMENT
 70
     0
  9
$CELWEIGHT
370
    -1
  9
$ENDCAPS
280
     0
  9
$JOINSTYLE
280
     0
  9
$LWDISPLAY
290
     0
  9
$INSUNITS
 70
     1
  9
$HYPERLINKBASE
  1

  9
$STYLESHEET
  1

  9
$XEDIT
290
     1
  9
$CEPSNTYPE
380
     0
  9
$PSTYLEMODE
290
     1
  9
$FINGERPRINTGUID
  2
{12F50282-3ED8-11D3-A8B7-0060B0F84BC6}
  9
$VERSIONGUID
  2
{12F50293-3ED8-11D3-A8B7-0060B0F84BC6}
  9
$EXTNAMES
290
     1
  9
$PSVPSCALE
 40
0.0
  9
$OLESTARTUP
290
     0
  9
$SORTENTS
280
   127
  9
$INDEXCTL
280
     0
  9
$HIDETEXT
280
     0
  9
$XCLIPFRAME
280
     2
  9
$HALOGAP
280
     0
  9
$OBSCOLOR
 70
   257
  9
$OBSLTYPE
280
     0
  9
$INTERSECTIONDISPLAY
280
     0
  9
$INTERSECTIONCOLOR
 70
   257
  9
$DIMASSOC
280
     1
  9
$PROJECTNAME
  1

  9
$CAMERADISPLAY
290
     0
  9
$LENSLENGTH
 40
50.0
  9
$CAMERAHEIGHT
 40
0.0
  9
$STEPSPERSEC
 40
2.0
  9
$STEPSIZE
 40
6.0
  9
$3DDWFPREC
 40
2.0
  9
$PSOLWIDTH
 40
0.25
  9
$PSOLHEIGHT
 40
4.0
  9
$LOFTANG1
 40
1.570796326794896
  9
$LOFTANG2
 40
1.570796326794896
  9
$LOFTMAG1
 40
0.0
  9
$LOFTMAG2
 40
0.0
  9
$LOFTPARAM
 70
     7
  9
$LOFTNORMALS
280
     1
  9
$LATITUDE
 40
37.795
  9
$LONGITUDE
 40
-122.394
  9
$NORTHDIRECTION
 40
0.0
  9
$TIMEZONE
 70
 -8000
  9
$LIGHTGLYPHDISPLAY
280
     1
  9
$TILEMODELIGHTSYNCH
280
     1
  9
$CMATERIAL
347
AB
  9
$SOLIDHIST
280
     0
  9
$SHOWHIST
280
     1
  9
$DWFFRAME
280
     2
  9
$DGNFRAME
280
     0
  9
$REALWORLDSCALE
290
     1
  9
$INTERFERECOLOR
 62
     1
  9
$INTERFEREOBJVS
345
CD
  9
$INTERFEREVPVS
346
CA
  9
$CSHADOW
280
     0
  9
$SHADOWPLANELOCATION
 40
0.0
  0
ENDSEC
  0
SECTION
  2
CLASSES
  0
CLASS
  1
ACDBDICTIONARYWDFLT
  2
AcDbDictionaryWithDefault
  3
ObjectDBX Classes
 90
        0
 91
        1
280
     0
281
     0
  0
CLASS
  1
ACDBPLACEHOLDER
  2
AcDbPlaceHolder
  3
ObjectDBX Classes
 90
        0
 91
        2
280
     0
281
     0
  0
CLASS
  1
LAYOUT
  2
AcDbLayout
  3
ObjectDBX Classes
 90
        0
 91
        3
280
     0
281
     0
  0
CLASS
  1
MATERIAL
  2
AcDbMaterial
  3
ObjectDBX Classes
 90
     1153
 91
        3
280
     0
281
     0
  0
CLASS
  1
VISUALSTYLE
  2
AcDbVisualStyle
  3
ObjectDBX Classes
 90
     4095
 91
       24
280
     0
281
     0
  0
CLASS
  1
TABLESTYLE
  2
AcDbTableStyle
  3
ObjectDBX Classes
 90
     4095
 91
        1
280
     0
281
     0
  0
CLASS
  1
SCALE
  2
AcDbScale
  3
ObjectDBX Classes
 90
     1153
 91
       17
280
     0
281
     0
  0
CLASS
  1
MLEADERSTYLE
  2
AcDbMLeaderStyle
  3
ACDB_MLEADERSTYLE_CLASS
 90
     4095
 91
        1
280
     0
281
     0
  0
CLASS
  1
ACDBSECTIONVIEWSTYLE
  2
AcDbSectionViewStyle
  3
ObjectDBX Classes
 90
     1025
 91
        1
280
     0
281
     0
  0
CLASS
  1
ACDBDETAILVIEWSTYLE
  2
AcDbDetailViewStyle
  3
ObjectDBX Classes
 90
     1025
 91
        1
280
     0
281
     0
  0
CLASS
  1
MESH
  2
AcDbSubDMesh
  3
ObjectDBX Classes
 90
        0
 91
        2
280
     0
281
     1
  0
CLASS
  1
DICTIONARYVAR
  2
AcDbDictionaryVar
  3
ObjectDBX Classes
 90
        0
 91
        9
280
     0
281
     0
  0
CLASS
  1
CELLSTYLEMAP
  2
AcDbCellStyleMap
  3
ObjectDBX Classes
 90
     1152
 91
        1
280
     0
281
     0
  0
ENDSEC
  0
SECTION
  2
TABLES
  0
TABLE
  2
VPORT
  5
8
330
0
100
AcDbSymbolTable
 70
     1
  0
VPORT
  5
A8
330
8
100
AcDbSymbolTableRecord
100
AcDbViewportTableRecord
  2
*Active
 70
     0
 10
0.0
 20
0.0
 11
1.0
 21
1.0
 12
4.396984100341796
 22
24.66748428344727
 13
0.0
 23
0.0
 14
0.5
 24
0.5
 15
0.5
 25
0.5
 16
-1.0
 26
-1.0
 36
1.0
 17
0.0
 27
0.0
 37
0.0
 40
115.5553887220061
 41
0.3253644665804665
 42
50.0
 43
0.0
 44
0.0
 50
0.0
 51
0.0
 71
     0
 72
   100
 73
     1
 74
     3
 75
     0
 76
     0
 77
     0
 78
     0
281
     0
 65
     1
110
0.0
120
0.0
130
0.0
111
1.0
121
0.0
131
0.0
112
0.0
122
1.0
132
0.0
 79
     0
146
0.0
348
C9
 60
     3
 61
     5
292
     1
282
     1
141
0.0
142
0.0
 63
   250
421
  3355443
  0
ENDTAB
  0
TABLE
  2
LTYPE
  5
5
330
0
100
AcDbSymbolTable
 70
     1
  0
LTYPE
  5
14
330
5
100
AcDbSymbolTableRecord
100
AcDbLinetypeTableRecord
  2
ByBlock
 70
     0
  3

 72
    65
 73
     0
 40
0.0
  0
LTYPE
  5
15
330
5
100
AcDbSymbolTableRecord
100
AcDbLinetypeTableRecord
  2
ByLayer
 70
     0
  3

 72
    65
 73
     0
 40
0.0
  0
LTYPE
  5
16
330
5
100
AcDbSymbolTableRecord
100
AcDbLinetypeTableRecord
  2
Continuous
 70
     0
  3
Solid line
 72
    65
 73
     0
 40
0.0
  0
ENDTAB
  0
TABLE
  2
LAYER
  5
2
330
0
100
AcDbSymbolTable
 70
     2
  0
LAYER
  5
10
330
2
100
AcDbSymbolTableRecord
100
AcDbLayerTableRecord
  2
0
 70
     0
 62
   113
420
  5759375
  6
Continuous
370
    -3
390
F
347
BB
  0
LAYER
  5
2B
330
2
100
AcDbSymbolTableRecord
100
AcDbLayerTableRecord
  2
ASHADE
 70
     4
 62
     7
  6
Continuous
370
    -3
390
2D
347
BB
  0
ENDTAB
  0
TABLE
  2
STYLE
  5
3
330
0
100
AcDbSymbolTable
 70
     2
  0
STYLE
  5
11
330
3
100
AcDbSymbolTableRecord
100
AcDbTextStyleTableRecord
  2
Standard
 70
     0
 40
0.0
 41
1.0
 50
0.0
 71
     0
 42
0.2
  3
txt
  4

  0
STYLE
  5
2C
330
3
100
AcDbSymbolTableRecord
100
AcDbTextStyleTableRecord
  2
ASHADE
 70
     0
 40
0.2
 41
1.0
 50
0.0
 71
     0
 42
0.2
  3
simplex
  4

  0
ENDTAB
  0
TABLE
  2
VIEW
  5
6
330
0
100
AcDbSymbolTable
 70
     0
  0
ENDTAB
  0
TABLE
  2
UCS
  5
7
330
0
100
AcDbSymbolTable
 70
     0
  0
ENDTAB
  0
TABLE
  2
APPID
  5
9
330
0
100
AcDbSymbolTable
 70
     6
  0
APPID
  5
12
330
9
100
AcDbSymbolTableRecord
100
AcDbRegAppTableRecord
  2
ACAD
 70
     0
  0
APPID
  5
8F
330
9
100
AcDbSymbolTableRecord
100
AcDbRegAppTableRecord
  2
AVE_RENDER
 70
     0
  0
APPID
  5
90
330
9
100
AcDbSymbolTableRecord
100
AcDbRegAppTableRecord
  2
AVE_ENTITY_MATERIAL
 70
     0
  0
APPID
  5
9C
330
9
100
AcDbSymbolTableRecord
100
AcDbRegAppTableRecord
  2
AVE_FINISH
 70
     0
  0
APPID
  5
9D
330
9
100
AcDbSymbolTableRecord
100
AcDbRegAppTableRecord
  2
AVE_MATERIAL
 70
     0
  0
APPID
  5
9E
330
9
100
AcDbSymbolTableRecord
100
AcDbRegAppTableRecord
  2
AVE_GLOBAL
 70
     0
  0
ENDTAB
  0
TABLE
  2
DIMSTYLE
  5
A
330
0
100
AcDbSymbolTable
 70
     1
100
AcDbDimStyleTable
 71
     0
  0
DIMSTYLE
105
27
330
A
100
AcDbSymbolTableRecord
100
AcDbDimStyleTableRecord
  2
Standard
 70
     0
340
11
  0
ENDTAB
  0
TABLE
  2
BLOCK_RECORD
  5
1
330
0
100
AcDbSymbolTable
 70
     6
  0
BLOCK_RECORD
  5
1F
330
1
100
AcDbSymbolTableRecord
100
AcDbBlockTableRecord
  2
*Model_Space
340
22
 70
     0
280
     1
281
     0
  0
BLOCK_RECORD
  5
1B
330
1
100
AcDbSymbolTableRecord
100
AcDbBlockTableRecord
  2
*Paper_Space
340
1E
 70
     0
280
     1
281
     0
  0
BLOCK_RECORD
  5
23
330
1
100
AcDbSymbolTableRecord
100
AcDbBlockTableRecord
  2
*Paper_Space0
340
26
 70
     0
280
     1
281
     0
  0
BLOCK_RECORD
  5
2E
330
1
100
AcDbSymbolTableRecord
100
AcDbBlockTableRecord
  2
direct
340
0
 70
     0
280
     1
281
     0
  0
BLOCK_RECORD
  5
42
330
1
100
AcDbSymbolTableRecord
100
AcDbBlockTableRecord
  2
overhead
340
0
 70
     0
280
     1
281
     0
  0
BLOCK_RECORD
  5
5F
330
1
100
AcDbSymbolTableRecord
100
AcDbBlockTableRecord
  2
sh_spot
340
0
 70
     0
280
     1
281
     0
  0
BLOCK_RECORD
  5
91
330
1
100
AcDbSymbolTableRecord
100
AcDbBlockTableRecord
  2
AVE_RENDER
340
0
102
{BLKREFS
331
94
331
95
331
96
331
97
331
98
331
99
331
9A
331
9B
102
}
 70
     0
280
     1
281
     0
  0
BLOCK_RECORD
  5
9F
330
1
100
AcDbSymbolTableRecord
100
AcDbBlockTableRecord
  2
AVE_GLOBAL
340
0
102
{BLKREFS
331
A2
102
}
 70
     0
280
     1
281
     0
  0
ENDTAB
  0
ENDSEC
  0
SECTION
  2
BLOCKS
  0
BLOCK
  5
20
330
1F
100
AcDbEntity
  8
0
100
AcDbBlockBegin
  2
*Model_Space
 70
     0
 10
0.0
 20
0.0
 30
0.0
  3
*Model_Space
  1

  0
ENDBLK
  5
21
330
1F
100
AcDbEntity
  8
0
100
AcDbBlockEnd
  0
BLOCK
  5
1C
330
1B
100
AcDbEntity
 67
     1
  8
0
100
AcDbBlockBegin
  2
*Paper_Space
 70
     0
 10
0.0
 20
0.0
 30
0.0
  3
*Paper_Space
  1

  0
ENDBLK
  5
1D
330
1B
100
AcDbEntity
 67
     1
  8
0
100
AcDbBlockEnd
  0
BLOCK
  5
24
330
23
100
AcDbEntity
 67
     1
  8
0
100
AcDbBlockBegin
  2
*Paper_Space0
 70
     0
 10
0.0
 20
0.0
 30
0.0
  3
*Paper_Space0
  1

  0
ENDBLK
  5
25
330
23
100
AcDbEntity
 67
     1
  8
0
100
AcDbBlockEnd
  0
BLOCK
  5
40
330
2E
100
AcDbEntity
  8
0
100
AcDbBlockBegin
  2
direct
 70
     2
 10
0.0
 20
0.0
 30
0.0
  3
direct
  1

  0
ATTDEF
  5
2F
330
2E
100
AcDbEntity
  8
ASHADE
  6
Continuous
 62
     1
100
AcDbText
 10
0.0
 20
-0.1
 30
0.0
 40
0.2
  1

  7
ASHADE
 72
     1
 11
0.0
 21
-0.1
 31
0.0
100
AcDbAttributeDefinition
280
     0
  3
Light Name
  2
SNAME
 70
     0
280
     0
  0
ARC
  5
30
330
2E
100
AcDbEntity
  8
ASHADE
  6
Continuous
 62
     7
100
AcDbCircle
 10
0.0
 20
0.0
 30
0.0
 40
0.3
100
AcDbArc
 50
205.6792886194569
 51
334.3207113805431
  0
ARC
  5
31
330
2E
100
AcDbEntity
  8
ASHADE
  6
Continuous
 62
     7
100
AcDbCircle
 10
0.0
 20
0.0
 30
0.0
 40
0.3
100
AcDbArc
 50
25.67928861945685
 51
154.3207113805431
  0
LINE
  5
32
330
2E
100
AcDbEntity
  8
ASHADE
  6
Continuous
 62
     7
100
AcDbLine
 10
-0.21
 20
0.2142428528562855
 30
0.0
 11
-0.21
 21
0.5
 31
0.0
  0
LINE
  5
33
330
2E
100
AcDbEntity
  8
ASHADE
  6
Continuous
 62
     7
100
AcDbLine
 10
-0.11
 20
0.2791057147390572
 30
0.0
 11
-0.11
 21
0.5
 31
0.0
  0
LINE
  5
34
330
2E
100
AcDbEntity
  8
ASHADE
  6
Continuous
 62
     7
100
AcDbLine
 10
0.21
 20
0.2142428528562855
 30
0.0
 11
0.21
 21
0.5
 31
0.0
  0
ATTDEF
  5
35
330
2E
100
AcDbEntity
  8
ASHADE
  6
Continuous
 62
     7
100
AcDbText
 10
0.0
 20
0.25
 30
0.0
 40
0.01
  1

100
AcDbAttributeDefinition
280
     0
  3
Look-at Y
  2
LAY
 70
     1
280
     0
  0
ATTDEF
  5
36
330
2E
100
AcDbEntity
  8
ASHADE
  6
Continuous
 62
     7
100
AcDbText
 10
0.0
 20
0.22
 30
0.0
 40
0.01
  1
1
100
AcDbAttributeDefinition
280
     0
  3
Light Intensity
  2
INTENSITY
 70
     1
280
     0
  0
ATTDEF
  5
37
330
2E
100
AcDbEntity
  8
ASHADE
  6
Continuous
 62
     7
100
AcDbText
 10
0.0
 20
0.16
 30
0.0
 40
0.01
  1
-1
100
AcDbAttributeDefinition
280
     0
  3
*not used*
  2
BEAMD
 70
     1
280
     0
  0
ATTDEF
  5
38
330
2E
100
AcDbEntity
  8
ASHADE
  6
Continuous
 62
     7
100
AcDbText
 10
0.0
 20
0.175
 30
0.0
 40
0.01
  1
-1
100
AcDbAttributeDefinition
280
     0
  3
*not used*
  2
CONED
 70
     1
280
     0
  0
ATTDEF
  5
39
330
2E
100
AcDbEntity
  8
ASHADE
  6
Continuous
 62
     7
100
AcDbText
 10
0.0
 20
0.19
 30
0.0
 40
0.01
  1
0
100
AcDbAttributeDefinition
280
     0
  3
Depth Map Size
  2
CONEA
 70
     1
280
     0
  0
ATTDEF
  5
3A
330
2E
100
AcDbEntity
  8
ASHADE
  6
Continuous
 62
     7
100
AcDbText
 10
0.0
 20
0.2050000000000001
 30
0.0
 40
0.01
  1
1,1,1
100
AcDbAttributeDefinition
280
     0
  3
Light Color (RGB)
  2
COLOR
 70
     1
280
     0
  0
ATTDEF
  5
3B
330
2E
100
AcDbEntity
  8
ASHADE
  6
Continuous
 62
     7
100
AcDbText
 10
0.0
 20
0.235
 30
0.0
 40
0.01
  1

100
AcDbAttributeDefinition
280
     0
  3
Look-at Z
  2
LAZ
 70
     1
280
     0
  0
LINE
  5
3C
330
2E
100
AcDbEntity
  8
ASHADE
  6
Continuous
 62
     7
100
AcDbLine
 10
0.0
 20
0.3
 30
0.0
 11
0.0
 21
0.5
 31
0.0
  0
LINE
  5
3D
330
2E
100
AcDbEntity
  8
ASHADE
  6
Continuous
 62
     7
100
AcDbLine
 10
0.11
 20
0.2791057147390572
 30
0.0
 11
0.11
 21
0.5
 31
0.0
  0
ATTDEF
  5
3E
330
2E
100
AcDbEntity
  8
ASHADE
  6
Continuous
 62
     7
100
AcDbText
 10
0.0
 20
0.265
 30
0.0
 40
0.01
  1

100
AcDbAttributeDefinition
280
     0
  3
Look-at X
  2
LAX
 70
     1
280
     0
  0
ATTDEF
  5
3F
330
2E
100
AcDbEntity
  8
ASHADE
  6
Continuous
 62
     7
100
AcDbText
 10
0.0
 20
0.28
 30
0.0
 40
0.01
  1

100
AcDbAttributeDefinition
280
     0
  3

  2
GNAME
 70
     1
280
     0
  0
ENDBLK
  5
41
330
2E
100
AcDbEntity
  8
0
100
AcDbBlockEnd
  0
BLOCK
  5
5D
330
42
100
AcDbEntity
  8
0
100
AcDbBlockBegin
  2
overhead
 70
     2
 10
0.0
 20
0.0
 30
0.0
  3
overhead
  1

  0
ATTDEF
  5
43
330
42
100
AcDbEntity
  8
ASHADE
  6
Continuous
 62
     1
100
AcDbText
 10
0.0
 20
-0.1
 30
0.0
 40
0.2
  1

  7
ASHADE
 72
     1
 11
0.0
 21
-0.1
 31
0.0
100
AcDbAttributeDefinition
280
     0
  3
Light Name
  2
SNAME
 70
     0
280
     0
  0
ARC
  5
44
330
42
100
AcDbEntity
  8
ASHADE
  6
Continuous
 62
     7
100
AcDbCircle
 10
0.0
 20
0.0
 30
0.0
 40
0.3
100
AcDbArc
 50
205.6792886194569
 51
334.3207113805431
  0
LINE
  5
45
330
42
100
AcDbEntity
  8
ASHADE
  6
Continuous
 62
     7
100
AcDbLine
 10
-0.2041413561583015
 20
-0.2198324514393848
 30
0.0
 11
-0.2721884748777353
 21
-0.2931099352525131
 31
0.0
  0
LINE
  5
46
330
42
100
AcDbEntity
  8
ASHADE
  6
Continuous
 62
     7
100
AcDbLine
 10
-0.1096591641591904
 20
-0.2792398032442862
 30
0.0
 11
-0.1279356915190555
 21
-0.3257797704516673
 31
0.0
  0
LINE
  5
47
330
42
100
AcDbEntity
  8
ASHADE
  6
Continuous
 62
     7
100
AcDbLine
 10
0.0
 20
-0.2999999999999999
 30
0.0
 11
0.0
 21
-0.4
 31
0.0
  0
LINE
  5
48
330
42
100
AcDbEntity
  8
ASHADE
  6
Continuous
 62
     7
100
AcDbLine
 10
0.1096591641591904
 20
-0.2792398032442862
 30
0.0
 11
0.1279356915190555
 21
-0.3257797704516673
 31
0.0
  0
LINE
  5
49
330
42
100
AcDbEntity
  8
ASHADE
  6
Continuous
 62
     7
100
AcDbLine
 10
0.2041413561583015
 20
-0.2198324514393848
 30
0.0
 11
0.2721884748777353
 21
-0.2931099352525131
 31
0.0
  0
ARC
  5
4A
330
42
100
AcDbEntity
  8
ASHADE
  6
Continuous
 62
     7
100
AcDbCircle
 10
0.0
 20
0.0
 30
0.0
 40
0.3
100
AcDbArc
 50
25.67928861945685
 51
154.3207113805431
  0
LINE
  5
4B
330
42
100
AcDbEntity
  8
ASHADE
  6
Continuous
 62
     7
100
AcDbLine
 10
-0.2703701166919155
 20
0.13
 30
0.0
 11
-0.3154318028072347
 21
0.1516666666666666
 31
0.0
  0
LINE
  5
4C
330
42
100
AcDbEntity
  8
ASHADE
  6
Continuous
 62
     7
100
AcDbLine
 10
-0.2703701166919155
 20
-0.13
 30
0.0
 11
-0.3154318028072347
 21
-0.1516666666666666
 31
0.0
  0
LINE
  5
4D
330
42
100
AcDbEntity
  8
ASHADE
  6
Continuous
 62
     7
100
AcDbLine
 10
-0.2041413561583015
 20
0.2198324514393849
 30
0.0
 11
-0.2721884748777353
 21
0.2931099352525131
 31
0.0
  0
LINE
  5
4E
330
42
100
AcDbEntity
  8
ASHADE
  6
Continuous
 62
     7
100
AcDbLine
 10
-0.1096591641591904
 20
0.2792398032442862
 30
0.0
 11
-0.1279356915190555
 21
0.3257797704516674
 31
0.0
  0
LINE
  5
4F
330
42
100
AcDbEntity
  8
ASHADE
  6
Continuous
 62
     7
100
AcDbLine
 10
0.2703701166919155
 20
-0.13
 30
0.0
 11
0.3154318028072347
 21
-0.1516666666666666
 31
0.0
  0
LINE
  5
50
330
42
100
AcDbEntity
  8
ASHADE
  6
Continuous
 62
     7
100
AcDbLine
 10
0.2703701166919155
 20
0.13
 30
0.0
 11
0.3154318028072347
 21
0.1516666666666666
 31
0.0
  0
LINE
  5
51
330
42
100
AcDbEntity
  8
ASHADE
  6
Continuous
 62
     7
100
AcDbLine
 10
0.0
 20
0.3
 30
0.0
 11
0.0
 21
0.4
 31
0.0
  0
ATTDEF
  5
52
330
42
100
AcDbEntity
  8
ASHADE
  6
Continuous
 62
     7
100
AcDbText
 10
0.0
 20
0.22
 30
0.0
 40
0.01
  1
1
100
AcDbAttributeDefinition
280
     0
  3
Light Intensity
  2
INTENSITY
 70
     1
280
     0
  0
ATTDEF
  5
53
330
42
100
AcDbEntity
  8
ASHADE
  6
Continuous
 62
     7
100
AcDbText
 10
0.0
 20
0.16
 30
0.0
 40
0.01
  1
-1
100
AcDbAttributeDefinition
280
     0
  3
*not used*
  2
BEAMD
 70
     1
280
     0
  0
ATTDEF
  5
54
330
42
100
AcDbEntity
  8
ASHADE
  6
Continuous
 62
     7
100
AcDbText
 10
0.0
 20
0.175
 30
0.0
 40
0.01
  1
-1
100
AcDbAttributeDefinition
280
     0
  3
*not used*
  2
CONED
 70
     1
280
     0
  0
ATTDEF
  5
55
330
42
100
AcDbEntity
  8
ASHADE
  6
Continuous
 62
     7
100
AcDbText
 10
0.0
 20
0.19
 30
0.0
 40
0.01
  1
0
100
AcDbAttributeDefinition
280
     0
  3
Depth Map Size
  2
CONEA
 70
     1
280
     0
  0
ATTDEF
  5
56
330
42
100
AcDbEntity
  8
ASHADE
  6
Continuous
 62
     7
100
AcDbText
 10
0.0
 20
0.2050000000000001
 30
0.0
 40
0.01
  1
1,1,1
100
AcDbAttributeDefinition
280
     0
  3
Light Color (RGB)
  2
COLOR
 70
     1
280
     0
  0
ATTDEF
  5
57
330
42
100
AcDbEntity
  8
ASHADE
  6
Continuous
 62
     7
100
AcDbText
 10
0.0
 20
0.235
 30
0.0
 40
0.01
  1

100
AcDbAttributeDefinition
280
     0
  3
Look-at Z
  2
LAZ
 70
     1
280
     0
  0
ATTDEF
  5
58
330
42
100
AcDbEntity
  8
ASHADE
  6
Continuous
 62
     7
100
AcDbText
 10
0.0
 20
0.25
 30
0.0
 40
0.01
  1

100
AcDbAttributeDefinition
280
     0
  3
Look-at Y
  2
LAY
 70
     1
280
     0
  0
ATTDEF
  5
59
330
42
100
AcDbEntity
  8
ASHADE
  6
Continuous
 62
     7
100
AcDbText
 10
0.0
 20
0.265
 30
0.0
 40
0.01
  1

100
AcDbAttributeDefinition
280
     0
  3
Look-at X
  2
LAX
 70
     1
280
     0
  0
ATTDEF
  5
5A
330
42
100
AcDbEntity
  8
ASHADE
  6
Continuous
 62
     7
100
AcDbText
 10
0.0
 20
0.28
 30
0.0
 40
0.01
  1

100
AcDbAttributeDefinition
280
     0
  3

  2
GNAME
 70
     1
280
     0
  0
LINE
  5
5B
330
42
100
AcDbEntity
  8
ASHADE
  6
Continuous
 62
     7
100
AcDbLine
 10
0.1096591641591904
 20
0.2792398032442862
 30
0.0
 11
0.1279356915190555
 21
0.3257797704516674
 31
0.0
  0
LINE
  5
5C
330
42
100
AcDbEntity
  8
ASHADE
  6
Continuous
 62
     7
100
AcDbLine
 10
0.2041413561583015
 20
0.2198324514393849
 30
0.0
 11
0.2721884748777353
 21
0.2931099352525131
 31
0.0
  0
ENDBLK
  5
5E
330
42
100
AcDbEntity
  8
0
100
AcDbBlockEnd
  0
BLOCK
  5
85
330
5F
100
AcDbEntity
  8
0
100
AcDbBlockBegin
  2
sh_spot
 70
     2
 10
0.0
 20
0.0
 30
0.0
  3
sh_spot
  1

  0
LINE
  5
60
330
5F
100
AcDbEntity
  8
ASHADE
  6
Continuous
 62
     7
100
AcDbLine
 10
0.25
 20
0.26
 30
0.0
 11
-0.25
 21
0.26
 31
0.0
  0
LINE
  5
61
330
5F
100
AcDbEntity
  8
ASHADE
  6
Continuous
 62
     7
100
AcDbLine
 10
-0.25
 20
-0.3399999999999999
 30
0.0
 11
0.25
 21
-0.3399999999999999
 31
0.0
  0
ATTDEF
  5
62
330
5F
100
AcDbEntity
  8
ASHADE
  6
Continuous
 62
     1
100
AcDbText
 10
0.0
 20
-0.1
 30
0.0
 40
0.2
  1

  7
ASHADE
 72
     1
 11
0.0
 21
-0.1
 31
0.0
100
AcDbAttributeDefinition
280
     0
  3
Light Name
  2
SNAME
 70
     0
280
     0
  0
LINE
  5
63
330
5F
100
AcDbEntity
  8
ASHADE
  6
Continuous
 62
     7
100
AcDbLine
 10
-0.25
 20
-0.13
 30
0.0
 11
-0.25
 21
-0.3399999999999999
 31
0.0
  0
LINE
  5
64
330
5F
100
AcDbEntity
  8
ASHADE
  6
Continuous
 62
     7
100
AcDbLine
 10
-0.25
 20
-0.18
 30
0.0
 11
-0.29
 21
-0.18
 31
0.0
  0
LINE
  5
65
330
5F
100
AcDbEntity
  8
ASHADE
  6
Continuous
 62
     7
100
AcDbLine
 10
-0.29
 20
-0.22
 30
0.0
 11
-0.25
 21
-0.22
 31
0.0
  0
LINE
  5
66
330
5F
100
AcDbEntity
  8
ASHADE
  6
Continuous
 62
     7
100
AcDbLine
 10
-0.29
 20
-0.18
 30
0.0
 11
-0.29
 21
-0.22
 31
0.0
  0
LINE
  5
67
330
5F
100
AcDbEntity
  8
ASHADE
  6
Continuous
 62
     7
100
AcDbLine
 10
-0.1045454545454545
 20
0.26
 30
0.0
 11
-0.15
 21
0.46
 31
0.0
  0
LINE
  5
68
330
5F
100
AcDbEntity
  8
ASHADE
  6
Continuous
 62
     7
100
AcDbLine
 10
-0.21
 20
0.26
 30
0.0
 11
-0.301304347826087
 21
0.46
 31
0.0
  0
LINE
  5
69
330
5F
100
AcDbEntity
  8
ASHADE
  6
Continuous
 62
     7
100
AcDbLine
 10
-0.25
 20
0.26
 30
0.0
 11
-0.25
 21
0.13
 31
0.0
  0
LINE
  5
6A
330
5F
100
AcDbEntity
  8
ASHADE
  6
Continuous
 62
     7
100
AcDbLine
 10
-0.25
 20
0.22
 30
0.0
 11
-0.29
 21
0.22
 31
0.0
  0
LINE
  5
6B
330
5F
100
AcDbEntity
  8
ASHADE
  6
Continuous
 62
     7
100
AcDbLine
 10
-0.29
 20
0.1799999999999999
 30
0.0
 11
-0.25
 21
0.1799999999999999
 31
0.0
  0
LINE
  5
6C
330
5F
100
AcDbEntity
  8
ASHADE
  6
Continuous
 62
     7
100
AcDbLine
 10
-0.29
 20
0.22
 30
0.0
 11
-0.29
 21
0.1799999999999999
 31
0.0
  0
ATTDEF
  5
6D
330
5F
100
AcDbEntity
  8
ASHADE
  6
Continuous
 62
     7
100
AcDbText
 10
0.0
 20
-0.24
 30
0.0
 40
0.01
  1
0
100
AcDbAttributeDefinition
280
     0
  3
Depth Map Size
  2
ZSIZE
 70
     1
280
     0
  0
ATTDEF
  5
6E
330
5F
100
AcDbEntity
  8
ASHADE
  6
Continuous
 62
     7
100
AcDbText
 10
0.0
 20
-0.3300000000000001
 30
0.0
 40
0.01
  1
0,0,0
100
AcDbAttributeDefinition
280
     0
  3
Look-from XYZ
  2
LFXYZ
 70
     1
280
     0
  0
ATTDEF
  5
6F
330
5F
100
AcDbEntity
  8
ASHADE
  6
Continuous
 62
     7
100
AcDbText
 10
0.0
 20
-0.315
 30
0.0
 40
0.01
  1
0.0
100
AcDbAttributeDefinition
280
     0
  3
Beam Distribution
  2
BEAMDI
 70
     1
280
     0
  0
ATTDEF
  5
70
330
5F
100
AcDbEntity
  8
ASHADE
  6
Continuous
 62
     7
100
AcDbText
 10
0.0
 20
-0.3
 30
0.0
 40
0.01
  1
0.0
100
AcDbAttributeDefinition
280
     0
  3
Cone Delta
  2
CONEDE
 70
     1
280
     0
  0
ATTDEF
  5
71
330
5F
100
AcDbEntity
  8
ASHADE
  6
Continuous
 62
     7
100
AcDbText
 10
0.0
 20
-0.2850000000000001
 30
0.0
 40
0.01
  1
10.0
100
AcDbAttributeDefinition
280
     0
  3
Cone Angle
  2
CONEAN
 70
     1
280
     0
  0
ATTDEF
  5
72
330
5F
100
AcDbEntity
  8
ASHADE
  6
Continuous
 62
     7
100
AcDbText
 10
0.0
 20
-0.27
 30
0.0
 40
0.01
  1
-1
100
AcDbAttributeDefinition
280
     0
  3
*not used*
  2
BIASMAX
 70
     1
280
     0
  0
ATTDEF
  5
73
330
5F
100
AcDbEntity
  8
ASHADE
  6
Continuous
 62
     7
100
AcDbText
 10
0.0
 20
-0.255
 30
0.0
 40
0.01
  1
-1
100
AcDbAttributeDefinition
280
     0
  3
*not used*
  2
BIASMIN
 70
     1
280
     0
  0
ATTDEF
  5
74
330
5F
100
AcDbEntity
  8
ASHADE
  6
Continuous
 62
     7
100
AcDbText
 10
0.0
 20
-0.225
 30
0.0
 40
0.01
  1
1,1,1
100
AcDbAttributeDefinition
280
     0
  3
Light Color (RGB)
  2
COLOR
 70
     1
280
     0
  0
ATTDEF
  5
75
330
5F
100
AcDbEntity
  8
ASHADE
  6
Continuous
 62
     7
100
AcDbText
 10
0.0
 20
-0.21
 30
0.0
 40
0.01
  1
1
100
AcDbAttributeDefinition
280
     0
  3
Light Intensity
  2
INTENSITY
 70
     1
280
     0
  0
ATTDEF
  5
76
330
5F
100
AcDbEntity
  8
ASHADE
  6
Continuous
 62
     7
100
AcDbText
 10
0.0
 20
-0.15
 30
0.0
 40
0.01
  1

100
AcDbAttributeDefinition
280
     0
  3

  2
GNAME
 70
     1
280
     0
  0
ATTDEF
  5
77
330
5F
100
AcDbEntity
  8
ASHADE
  6
Continuous
 62
     7
100
AcDbText
 10
0.0
 20
-0.195
 30
0.0
 40
0.01
  1

100
AcDbAttributeDefinition
280
     0
  3
Look-at Z
  2
LAZ
 70
     1
280
     0
  0
ATTDEF
  5
78
330
5F
100
AcDbEntity
  8
ASHADE
  6
Continuous
 62
     7
100
AcDbText
 10
0.0
 20
-0.18
 30
0.0
 40
0.01
  1

100
AcDbAttributeDefinition
280
     0
  3
Look-at Y
  2
LAY
 70
     1
280
     0
  0
ATTDEF
  5
79
330
5F
100
AcDbEntity
  8
ASHADE
  6
Continuous
 62
     7
100
AcDbText
 10
0.0
 20
-0.165
 30
0.0
 40
0.01
  1

100
AcDbAttributeDefinition
280
     0
  3
Look-at X
  2
LAX
 70
     1
280
     0
  0
LINE
  5
7A
330
5F
100
AcDbEntity
  8
ASHADE
  6
Continuous
 62
     7
100
AcDbLine
 10
0.25
 20
-0.3399999999999999
 30
0.0
 11
0.25
 21
-0.13
 31
0.0
  0
LINE
  5
7B
330
5F
100
AcDbEntity
  8
ASHADE
  6
Continuous
 62
     7
100
AcDbLine
 10
0.25
 20
-0.18
 30
0.0
 11
0.29
 21
-0.18
 31
0.0
  0
LINE
  5
7C
330
5F
100
AcDbEntity
  8
ASHADE
  6
Continuous
 62
     7
100
AcDbLine
 10
0.29
 20
-0.22
 30
0.0
 11
0.25
 21
-0.22
 31
0.0
  0
LINE
  5
7D
330
5F
100
AcDbEntity
  8
ASHADE
  6
Continuous
 62
     7
100
AcDbLine
 10
0.29
 20
-0.18
 30
0.0
 11
0.29
 21
-0.22
 31
0.0
  0
LINE
  5
7E
330
5F
100
AcDbEntity
  8
ASHADE
  6
Continuous
 62
     7
100
AcDbLine
 10
0.21
 20
0.26
 30
0.0
 11
0.301304347826087
 21
0.46
 31
0.0
  0
LINE
  5
7F
330
5F
100
AcDbEntity
  8
ASHADE
  6
Continuous
 62
     7
100
AcDbLine
 10
0.1045454545454545
 20
0.26
 30
0.0
 11
0.15
 21
0.46
 31
0.0
  0
LINE
  5
80
330
5F
100
AcDbEntity
  8
ASHADE
  6
Continuous
 62
     7
100
AcDbLine
 10
0.0
 20
0.26
 30
0.0
 11
0.0
 21
0.46
 31
0.0
  0
LINE
  5
81
330
5F
100
AcDbEntity
  8
ASHADE
  6
Continuous
 62
     7
100
AcDbLine
 10
0.25
 20
0.13
 30
0.0
 11
0.25
 21
0.26
 31
0.0
  0
LINE
  5
82
330
5F
100
AcDbEntity
  8
ASHADE
  6
Continuous
 62
     7
100
AcDbLine
 10
0.25
 20
0.22
 30
0.0
 11
0.29
 21
0.22
 31
0.0
  0
LINE
  5
83
330
5F
100
AcDbEntity
  8
ASHADE
  6
Continuous
 62
     7
100
AcDbLine
 10
0.29
 20
0.1799999999999999
 30
0.0
 11
0.25
 21
0.1799999999999999
 31
0.0
  0
LINE
  5
84
330
5F
100
AcDbEntity
  8
ASHADE
  6
Continuous
 62
     7
100
AcDbLine
 10
0.29
 20
0.22
 30
0.0
 11
0.29
 21
0.1799999999999999
 31
0.0
  0
ENDBLK
  5
86
330
5F
100
AcDbEntity
  8
0
100
AcDbBlockEnd
  0
BLOCK
  5
92
330
91
100
AcDbEntity
  8
ASHADE
100
AcDbBlockBegin
  2
AVE_RENDER
 70
     0
 10
0.0
 20
0.0
 30
0.0
  3
AVE_RENDER
  1
AVE_RENDER
  0
ENDBLK
  5
93
330
91
100
AcDbEntity
  8
0
100
AcDbBlockEnd
  0
BLOCK
  5
A0
330
9F
100
AcDbEntity
  8
ASHADE
100
AcDbBlockBegin
  2
AVE_GLOBAL
 70
     0
 10
0.0
 20
0.0
 30
0.0
  3
AVE_GLOBAL
  1
AVE_GLOBAL
  0
ENDBLK
  5
A1
330
9F
100
AcDbEntity
  8
0
100
AcDbBlockEnd
  0
ENDSEC
  0
SECTION
  2
ENTITIES
  0
INSERT
  5
94
330
1F
100
AcDbEntity
  8
ASHADE
 62
     1
100
AcDbBlockReference
  2
AVE_RENDER
 10
0.0
 20
0.0
 30
0.0
1001
AVE_RENDER
1002
{
1070
     7
1000
Pref
1070
    30
1070
    20
1070
     1
1070
     0
1000

1070
    10
1070
     1
1070
    10
1040
1.0
1070
     1
1040
0.3
1040
0.7
1040
0.0
1040
10.0
1010
-1.0
1020
-1.0
1030
-1.0
1040
0.3
1070
    49
1070
     0
1070
     0
1010
1.0
1020
1.0
1030
1.0
1040
45.0
1070
     1
1070
     0
1000
WCS
1040
0.0
1070
     0
1040
10.0
1002
}
  0
INSERT
  5
95
330
1F
100
AcDbEntity
  8
ASHADE
 62
     3
100
AcDbBlockReference
  2
AVE_RENDER
 10
0.0
 20
0.0
 30
0.0
1001
AVE_RENDER
1002
{
1070
     0
1000
Full Opt
1070
     0
1070
     1
1070
     1
1070
     1
1070
     0
1070
     0
1070
     0
1070
     1
1070
     1
1040
0.0001
1040
0.0001
1002
}
  0
INSERT
  5
96
330
1F
100
AcDbEntity
  8
ASHADE
 62
     4
100
AcDbBlockReference
  2
AVE_RENDER
 10
0.0
 20
0.0
 30
0.0
1001
AVE_RENDER
1002
{
1070
     0
1000
Quick Opt
1070
     0
1070
     1
1070
     1
1070
     1
1070
     0
1070
     0
1070
     1
1002
}
  0
INSERT
  5
97
330
1F
100
AcDbEntity
  8
ASHADE
 62
     5
100
AcDbBlockReference
  2
AVE_RENDER
 10
0.0
 20
0.0
 30
0.0
1001
AVE_RENDER
1002
{
1070
     1
1000
Scanl Opt
1070
     2
1070
     0
1070
     2
1040
2.0
1040
4.0
1070
     0
1070
     1
1070
     0
1040
0.03
1002
}
  0
INSERT
  5
98
330
1F
100
AcDbEntity
  8
ASHADE
 62
     6
100
AcDbBlockReference
  2
AVE_RENDER
 10
0.0
 20
0.0
 30
0.0
1001
AVE_RENDER
1002
{
1070
     2
1000
Raytr Opt
1070
     2
1070
     0
1070
     2
1040
2.0
1040
4.0
1070
     0
1070
     1
1070
     1
1040
0.03
1070
     3
1040
0.03
1002
}
  0
INSERT
  5
99
330
1F
100
AcDbEntity
  8
ASHADE
 62
     7
100
AcDbBlockReference
  2
AVE_RENDER
 10
0.0
 20
0.0
 30
0.0
1001
AVE_RENDER
1002
{
1070
     0
1000
RFile Opt
1070
     1
1070
   640
1070
   480
1070
 10000
1070
     1
1070
     8
1070
     8
1070
     0
1070
     0
1070
     0
1070
     0
1070
     0
1070
     0
1070
     0
1002
}
  0
INSERT
  5
9A
330
1F
100
AcDbEntity
  8
ASHADE
 62
     8
100
AcDbBlockReference
  2
AVE_RENDER
 10
0.0
 20
0.0
 30
0.0
1001
AVE_RENDER
1002
{
1070
     0
1000
Fog Opt
1070
     0
1070
     0
1040
0.0
1040
1.0
1040
0.0
1040
1.0
1010
0.5
1020
0.5
1030
0.5
1002
}
  0
INSERT
  5
9B
330
1F
100
AcDbEntity
  8
ASHADE
 62
     9
100
AcDbBlockReference
  2
AVE_RENDER
 10
0.0
 20
0.0
 30
0.0
1001
AVE_RENDER
1002
{
1070
     0
1000
BG Opt
1070
     0
1070
     1
1010
0.0
1020
0.0
1030
0.0
1010
1.0
1020
0.0
1030
0.0
1010
0.0
1020
1.0
1030
0.0
1010
0.0
1020
0.0
1030
1.0
1040
0.5
1040
0.33
1040
0.0
1000

1070
     1
1000

1070
     1
1070
     1
1040
1.0
1040
1.0
1040
0.0
1040
0.0
1070
     0
1002
}
  0
INSERT
  5
A2
330
1F
100
AcDbEntity
  8
ASHADE
 62
     1
100
AcDbBlockReference
  2
AVE_GLOBAL
 10
0.0
 20
0.0
 30
0.0
1001
AVE_MATERIAL
1002
{
1000
*GLOBAL*
1000
2
1000
Global finish.
1002
{
1002
}
1002
{
1070
    63
1002
{
1002
{
1010
-1.0
1020
-1.0
1030
-1.0
1002
}
1040
0.1000000014901161
1000

1040
0.0
1002
{
1002
}
1040
0.0
1002
{
1002
}
1040
0.0
1002
}
1002
{
1002
{
1010
-1.0
1020
-1.0
1030
-1.0
1002
}
1040
0.6999999880790711
1000

1040
0.0
1002
{
1002
}
1040
0.0
1002
{
1002
}
1040
0.0
1002
}
1002
{
1002
{
1010
-1.0
1020
-1.0
1030
-1.0
1002
}
1040
0.2000000029802322
1000

1040
0.0
1002
{
1002
}
1040
0.0
1002
{
1002
}
1040
0.0
1002
}
1002
{
1070
     0
1002
{
1070
     1
1002
{
1040
1.0
1040
1.0
1000

1040
0.0
1002
{
1002
}
1040
0.0
1002
{
1002
}
1040
0.0
1002
}
1002
}
1040
1.0
1040
0.0
1040
0.0
1002
}
1002
{
1040
1.0
1040
1.0
1000

1040
0.0
1002
{
1002
}
1040
0.0
1002
{
1002
}
1040
0.0
1002
}
1002
{
1040
0.5
1040
1.0
1000

1040
0.0
1002
{
1002
}
1040
0.0
1002
{
1002
}
1040
0.0
1002
}
1002
{
1070
     0
1040
0.0
1002
{
1002
}
1040
1.0
1002
{
1002
}
1040
0.0
1002
}
1002
{
1040
0.0
1002
{
1002
{
1010
0.0
1020
0.0
1030
0.0
1002
}
1040
1.0
1000

1040
0.0
1002
{
1002
}
1040
0.0
1002
{
1002
}
1040
0.0
1002
}
1002
}
1002
{
1002
{
1070
     1
1002
{
1040
0.0
1040
1.0
1000

1040
0.0
1002
{
1002
}
1040
0.0
1002
{
1002
}
1040
0.0
1002
}
1002
}
1040
0.0
1002
{
1002
}
1010
1.0
1020
0.0
1030
0.0
1010
0.0
1020
1.0
1030
0.0
1010
0.0
1020
0.0
1030
1.0
1070
     0
1002
}
1002
{
1002
{
1040
1.0
1040
1.0
1002
{
1070
     1
1002
{
1040
1.0
1040
1.0
1000

1040
0.0
1002
{
1002
}
1040
0.0
1002
{
1002
}
1040
0.0
1002
}
1002
}
1002
}
1070
     0
1040
0.0
1002
{
1002
}
1002
}
1002
{
1002
}
1002
}
1002
{
1071
        3
1070
     3
1070
     0
1002
{
1070
     2
1070
     0
1070
     0
1040
0.0
1002
}
1070
     0
1070
     2
1002
{
1002
}
1002
}
1002
{
1040
8030.0
1040
190.3000030517578
1040
0.3050000071525574
1040
228.0
1040
545.0
1040
14.0
1040
17.39999961853027
1040
0.4560000002384186
1002
}
1002
}
  0
MESH
  5
F9
330
1F
100
AcDbEntity
  8
0
 62
   221
420
 15050455
160
             23768
310
D85C0000940200000C00000013000000020000003C000000060000000200000000000000C1C837C000000060081E3CC0000000000000000000000000C1C837C0000000C047A720C000000000000000000C000000130000000A0000003C000000060000000200000000000000C1C837C0000000C047A720C000000000000000
310
00000000000AEC36C0000000C047A720C000000000000000000C00000013000000120000003C0000000600000002000000000000000AEC36C000000060081E3CC00000000000000000000000000AEC36C0000000C047A720C000000000000000000C000000130000001A0000003C000000060000000200000000000000C1C8
310
37C000000060081E3CC00000000000000000000000000AEC36C000000060081E3CC000000000000000000C00000013000000220000003C000000060000000200000000000000C1C837C000000060081E3CC0000000E02CD75640000000000AEC36C000000060081E3CC0000000E02CD756400C000000130000002A0000003C
310
0000000600000002000000000000000AEC36C000000060081E3CC0000000E02CD75640000000000AEC36C00000000048A720C0000000E02CD756400C00000013000000320000003C000000060000000200000000000000C1C837C00000000048A720C0000000E02CD75640000000000AEC36C00000000048A720C0000000E0
310
2CD756400C000000130000003A0000003C000000060000000200000000000000C1C837C000000060081E3CC0000000E02CD7564000000000C1C837C00000000048A720C0000000E02CD756400C00000013000000420000003C0000000600000002000000000000000AEC36C000000060081E3CC00000000000000000000000
310
000AEC36C000000060081E3CC0000000E02CD756400C000000130000004A0000003C000000060000000200000000000000C1C837C000000060081E3CC0000000000000000000000000C1C837C000000060081E3CC0000000E02CD756400C00000013000000520000003C0000000600000002000000000000000AEC36C00000
310
00C047A720C00000000000000000000000000AEC36C00000000048A720C0000000E02CD756400C000000130000005A0000003C000000060000000200000000000000C1C837C0000000C047A720C0000000000000000000000000C1C837C00000000048A720C0000000E02CD756400C00000013000000620000003C00000006
310
000000020000000000000001F210C000000060081E3CC000000000000000000000000001F210C0000000A047A720C000000000000000000C000000130000006A0000003C00000006000000020000000000000001F210C0000000A047A720C00000000000000000000000004AFE0AC0000000A047A720C00000000000000000
310
0C00000013000000720000003C0000000600000002000000000000004AFE0AC0000000A047A720C00000000000000000000000004AFE0AC000000060081E3CC000000000000000000C000000130000007A0000003C00000006000000020000000000000001F210C000000060081E3CC00000000000000000000000004AFE0A
310
C000000060081E3CC000000000000000000C00000013000000820000003C00000006000000020000000000000001F210C000000060081E3CC0000000002DD75640000000004AFE0AC000000060081E3CC0000000002DD756400C000000130000008A0000003C0000000600000002000000000000004AFE0AC000000060081E
310
3CC0000000002DD75640000000004AFE0AC0000000A047A720C0000000002DD756400C00000013000000920000003C0000000600000002000000000000004AFE0AC0000000A047A720C0000000002DD756400000000001F210C0000000A047A720C0000000002DD756400C000000130000009A0000003C0000000600000002
310
0000000000000001F210C000000060081E3CC0000000002DD756400000000001F210C0000000A047A720C0000000002DD756400C00000013000000A20000003C0000000600000002000000000000004AFE0AC000000060081E3CC00000000000000000000000004AFE0AC000000060081E3CC0000000002DD756400C000000
310
13000000AA0000003C00000006000000020000000000000001F210C000000060081E3CC000000000000000000000000001F210C000000060081E3CC0000000002DD756400C00000013000000B20000003C0000000600000002000000000000004AFE0AC0000000A047A720C00000000000000000000000004AFE0AC0000000
310
A047A720C0000000002DD756400C00000013000000BA0000003C00000006000000020000000000000001F210C0000000A047A720C000000000000000000000000001F210C0000000A047A720C0000000002DD756400C00000013000000C20000003C000000060000000200000000000000D79E11C000000060081E3CC00000
310
00404EE1474000000000D79E11C00000004048A720C0000000604EE147400C00000013000000CA0000003C000000060000000200000000000000D79E11C00000004048A720C0000000604EE1474000000000D79E11C00000004048A720C0000000E0A94F48400C00000013000000D20000003C000000060000000200000000
310
000000D79E11C00000004048A720C0000000E0A94F484000000000D79E11C000000060081E3CC0000000C0A94F48400C00000013000000DA0000003C000000060000000200000000000000D79E11C000000060081E3CC0000000404EE1474000000000D79E11C000000060081E3CC0000000C0A94F48400C00000013000000
310
E20000003C00000006000000020000000000000095FE36C000000040081E3CC0000000404EE147400000000095FE36C000000040081E3CC0000000C0A94F48400C00000013000000EA0000003C00000006000000020000000000000095FE36C000000040081E3CC0000000C0A94F48400000000095FE36C00000002048A720
310
C0000000E0A94F48400C00000013000000F20000003C00000006000000020000000000000095FE36C00000002048A720C0000000E0A94F48400000000095FE36C00000002048A720C0000000604EE147400C00000013000000FA0000003C00000006000000020000000000000095FE36C000000040081E3CC0000000404EE1
310
47400000000095FE36C00000002048A720C0000000604EE147400C00000013000000020100003C000000060000000200000000000000D79E11C000000060081E3CC0000000C0A94F48400000000095FE36C000000040081E3CC0000000C0A94F48400C000000130000000A0100003C000000060000000200000000000000D7
310
9E11C000000060081E3CC0000000404EE147400000000095FE36C000000040081E3CC0000000404EE147400C00000013000000120100003C000000060000000200000000000000D79E11C00000004048A720C0000000E0A94F48400000000095FE36C00000002048A720C0000000E0A94F48400C000000130000001A010000
310
3C000000060000000200000000000000D79E11C00000004048A720C0000000604EE147400000000095FE36C00000002048A720C0000000604EE147400C00000013000000220100003C000000060000000200000000000000740D11C0000000A0081E3CC00000004062A1564000000000740D11C00000002048A720C0000000
310
4062A156400C000000130000002A0100003C000000060000000200000000000000740D11C00000002048A720C00000004062A1564000000000740D11C00000002048A720C00000002090D856400C00000013000000320100003C000000060000000200000000000000740D11C00000002048A720C00000002090D856400000
310
0000740D11C0000000A0081E3CC00000002090D856400C000000130000003A0100003C000000060000000200000000000000740D11C0000000A0081E3CC00000004062A1564000000000740D11C0000000A0081E3CC00000002090D856400C00000013000000420100003C00000006000000020000000000008094FE36C000
310
000060081E3CC00000004062A156400000008094FE36C000000060081E3CC00000002090D856400C000000130000004A0100003C00000006000000020000000000008094FE36C000000060081E3CC00000002090D856400000000095FE36C00000000048A720C00000002090D856400C00000013000000520100003C000000
310
06000000020000000000000095FE36C00000000048A720C00000002090D856400000000095FE36C00000000048A720C00000004062A156400C000000130000005A0100003C00000006000000020000000000008094FE36C000000060081E3CC00000004062A156400000000095FE36C00000000048A720C00000004062A156
310
400C00000013000000620100003C000000060000000200000000000000740D11C0000000A0081E3CC00000002090D856400000008094FE36C000000060081E3CC00000002090D856400C000000130000006A0100003C000000060000000200000000000000740D11C0000000A0081E3CC00000004062A156400000008094FE
310
36C000000060081E3CC00000004062A156400C00000013000000720100003C000000060000000200000000000000740D11C00000002048A720C00000002090D856400000000095FE36C00000000048A720C00000002090D856400C000000130000007A0100003C000000060000000200000000000000740D11C00000002048
310
A720C00000004062A156400000000095FE36C00000000048A720C00000004062A156400C00000013000000820100003C000000060000000200000000000000C20D11C000000000D30221C0000000E0FE2DD53F00000000720D11C000000000D30221C0000000400EB156400C000000130000008A0100003C00000006000000
310
0200000000000000720D11C000000000D30221C0000000400EB1564000000000710D11C000000040949821C0000000400EB156400C00000013000000920100003C000000060000000200000000000000710D11C000000040949821C0000000400EB1564000000000C10D11C000000040949821C0000000E0FE2DD53F0C0000
310
00130000009A0100003C000000060000000200000000000000C20D11C000000000D30221C0000000E0FE2DD53F00000000C10D11C000000040949821C0000000E0FE2DD53F0C00000013000000A20100003C000000060000000200000000000080A8FE36C0000000C01D0321C0000000807B37D53F00000000A8FE36C00000
310
0040DF9821C0000000807B37D53F0C00000013000000AA0100003C000000060000000200000000000000A8FE36C000000040DF9821C0000000807B37D53F0000000094FE36C000000080DF9821C00000008017B156400C00000013000000B20100003C00000006000000020000000000000094FE36C000000080DF9821C000
310
00008017B156400000008094FE36C0000000801E0321C00000008017B156400C00000013000000BA0100003C000000060000000200000000000080A8FE36C0000000C01D0321C0000000807B37D53F0000008094FE36C0000000801E0321C00000008017B156400C00000013000000C20100003C0000000600000002000000
310
00000000C10D11C000000040949821C0000000E0FE2DD53F00000000A8FE36C000000040DF9821C0000000807B37D53F0C00000013000000CA0100003C000000060000000200000000000000C20D11C000000000D30221C0000000E0FE2DD53F00000080A8FE36C0000000C01D0321C0000000807B37D53F0C000000130000
310
00D20100003C000000060000000200000000000000710D11C000000040949821C0000000400EB156400000000094FE36C000000080DF9821C00000008017B156400C00000013000000DA0100003C000000060000000200000000000000720D11C000000000D30221C0000000400EB156400000008094FE36C0000000801E03
310
21C00000008017B156400C00000013000000E20100003C000000060000000200000000000000FE2D0BC000000020843D3AC0000000001DBE564000000000FE2D0BC000000020843D3AC0000000405AE956400C00000013000000EA0100003C000000060000000200000000000000F0CB37C000000000843D3AC0000000205A
310
E9564000000000FE2D0BC000000020843D3AC0000000405AE956400C00000013000000F20100003C000000060000000200000000000000F0CB37C000000000843D3AC0000000205AE9564000000000F0CB37C000000000843D3AC0000000001DBE56400C00000013000000FA0100003C000000060000000200000000000000
310
FE2D0BC000000020843D3AC0000000001DBE564000000000F0CB37C000000000843D3AC0000000001DBE56400C00000013000000020200003C000000060000000200000000000000FE2D0BC000000000B73E3AC000000000A7E9564000000000FE2D0BC0000000A0C3B73CC000000000A7E956400C000000130000000A0200
310
003C000000060000000200000000000000F0CB37C000000080C3B73CC0000000E0A6E9564000000000FE2D0BC0000000A0C3B73CC000000000A7E956400C00000013000000120200003C000000060000000200000000000000F0CB37C000000080C3B73CC0000000E0A6E9564000000000F0CB37C000000000B73E3AC00000
310
00E0A6E956400C000000130000001A0200003C000000060000000200000000000000FE2D0BC000000000B73E3AC000000000A7E9564000000000F0CB37C000000000B73E3AC0000000E0A6E956400C00000013000000220200003C000000060000000200000000000000FE2D0BC0000000805D253CC000000040D0BD564000
310
000000FE2D0BC000000000B73E3AC000000040D0BD56400C000000130000002A0200003C000000060000000200000000000000F0CB37C000000000B73E3AC000000020D0BD564000000000FE2D0BC000000000B73E3AC000000040D0BD56400C00000013000000320200003C000000060000000200000000000000F0CB37C0
310
00000000B73E3AC000000020D0BD564000000000F0CB37C0000000605D253CC000000020D0BD56400C000000130000003A0200003C000000060000000200000000000000FE2D0BC0000000805D253CC000000040D0BD564000000000F0CB37C0000000605D253CC000000020D0BD56400C00000013000000420200003C0000
310
00060000000200000000000000FE2D0BC0000000409B263CC000000000D78E564000000000FE2D0BC00000006090263CC00000008083BD56400C000000130000004A0200003C000000060000000200000000000000F0CB37C00000004090263CC00000006083BD564000000000FE2D0BC00000006090263CC00000008083BD
310
56400C00000013000000520200003C000000060000000200000000000000F0CB37C00000004090263CC00000006083BD564000000000F0CB37C0000000009B263CC000000000D78E56400C000000130000005A0200003C000000060000000200000000000000FE2D0BC0000000409B263CC000000000D78E564000000000F0
310
CB37C0000000009B263CC000000000D78E56400C00000013000000620200003C000000060000000200000000000000FE2D0BC0000000C079303DC0000000C017D9564000000000FE2D0BC0000000C0DD373DC0000000608CCE56400C000000130000006A0200003C000000060000000200000000000000FE2D0BC0000000C0
310
DD373DC0000000608CCE564000000000F0CB37C0000000C0DD373DC0000000608CCE56400C00000013000000720200003C000000060000000200000000000000F0CB37C00000008079303DC0000000C017D9564000000000F0CB37C0000000C0DD373DC0000000608CCE56400C000000130000007A0200003C000000060000
310
000200000000000000FE2D0BC0000000C079303DC0000000C017D9564000000000F0CB37C00000008079303DC0000000C017D956400C00000013000000820200003C000000060000000200000000000000FE2D0BC0000000C0DD373DC0000000608CCE564000000000FE2D0BC0000000C0552A3DC000000020BDB856400C00
310
0000130000008A0200003C000000060000000200000000000000FE2D0BC0000000C0552A3DC000000020BDB8564000000000F0CB37C0000000A0552A3DC000000020BDB856400C00000013000000920200003C000000060000000200000000000000F0CB37C0000000C0DD373DC0000000608CCE564000000000F0CB37C000
310
0000A0552A3DC000000020BDB856400C000000130000009A0200003C000000060000000200000000000000FE2D0BC0000000C0552A3DC000000020BDB8564000000000FE2D0BC000000040B92E3DC000000020BCAF56400C00000013000000A20200003C000000060000000200000000000000FE2D0BC000000040B92E3DC0
310
00000020BCAF564000000000F0CB37C000000040B92E3DC000000000BCAF56400C00000013000000AA0200003C000000060000000200000000000000F0CB37C0000000A0552A3DC000000020BDB8564000000000F0CB37C000000040B92E3DC000000000BCAF56400C00000013000000B20200003C00000006000000020000
310
0000000000FE2D0BC000000040B92E3DC000000020BCAF564000000000FE2D0BC000000040B92E3DC0000000C0A0AB56400C00000013000000BA0200003C000000060000000200000000000000FE2D0BC000000040B92E3DC0000000C0A0AB564000000000F0CB37C000000040B92E3DC0000000C0A0AB56400C0000001300
310
0000C20200003C000000060000000200000000000000F0CB37C000000040B92E3DC000000000BCAF564000000000F0CB37C000000040B92E3DC0000000C0A0AB56400C00000013000000CA0200003C000000060000000200000000000000FE2D0BC000000040B92E3DC0000000C0A0AB564000000000FE2D0BC0000000C06B
310
4D3DC000000060FCA656400C00000013000000D20200003C000000060000000200000000000000FE2D0BC0000000C06B4D3DC000000060FCA6564000000000F0CB37C0000000C06B4D3DC000000040FCA656400C00000013000000DA0200003C000000060000000200000000000000F0CB37C000000040B92E3DC0000000C0
310
A0AB564000000000F0CB37C0000000C06B4D3DC000000040FCA656400C00000013000000E20200003C000000060000000200000000000000FE2D0BC0000000C06B4D3DC000000060FCA6564000000000FE2D0BC000000080E9573DC00000006042A056400C00000013000000EA0200003C0000000600000002000000000000
310
00FE2D0BC000000080E9573DC00000006042A0564000000000F0CB37C000000080E9573DC00000006042A056400C00000013000000F20200003C000000060000000200000000000000F0CB37C0000000C06B4D3DC000000040FCA6564000000000F0CB37C000000080E9573DC00000006042A056400C00000013000000FA02
310
00003C000000060000000200000000000000FE2D0BC000000080E9573DC00000006042A0564000000000FE2D0BC0000000205E563DC000000080E89656400C00000013000000020300003C000000060000000200000000000000FE2D0BC0000000205E563DC000000080E896564000000000F0CB37C0000000005E563DC000
310
000060E89656400C000000130000000A0300003C000000060000000200000000000000F0CB37C000000080E9573DC00000006042A0564000000000F0CB37C0000000005E563DC000000060E89656400C00000013000000120300003C000000060000000200000000000000FE2D0BC0000000205E563DC000000080E8965640
310
00000000FE2D0BC0000000000D4B3DC0000000A0F39056400C000000130000001A0300003C000000060000000200000000000000FE2D0BC0000000000D4B3DC0000000A0F390564000000000F0CB37C0000000000D4B3DC0000000A0F39056400C00000013000000220300003C000000060000000200000000000000F0CB37
310
C0000000005E563DC000000060E896564000000000F0CB37C0000000000D4B3DC0000000A0F39056400C000000130000002A0300003C000000060000000200000000000000FE2D0BC0000000000D4B3DC0000000A0F390564000000000FE2D0BC000000080BC3C3DC0000000E0F28E56400C00000013000000320300003C00
310
0000060000000200000000000000FE2D0BC000000080BC3C3DC0000000E0F28E564000000000F0CB37C000000080BC3C3DC0000000E0F28E56400C000000130000003A0300003C000000060000000200000000000000F0CB37C0000000000D4B3DC0000000A0F390564000000000F0CB37C000000080BC3C3DC0000000E0F2
310
8E56400C00000013000000420300003C000000060000000200000000000000FE2D0BC000000080BC3C3DC0000000E0F28E564000000000FE2D0BC000000040CE273CC0000000C08A8E56400C000000130000004A0300003C000000060000000200000000000000F0CB37C000000040CE273CC0000000C08A8E564000000000
310
FE2D0BC000000040CE273CC0000000C08A8E56400C00000013000000520300003C000000060000000200000000000000F0CB37C000000040CE273CC0000000C08A8E564000000000F0CB37C000000080BC3C3DC0000000E0F28E56400C000000130000005A0300003C000000060000000200000000000000FE2D0BC0000000
310
C079303DC0000000C017D9564000000000FE2D0BC0000000A028713DC0000000C017D956400C00000013000000620300003C000000060000000200000000000000F0CB37C00000008079303DC0000000C017D9564000000000F0CB37C00000008028713DC0000000C017D956400C000000130000006A0300003C0000000600
310
00000200000000000000FE2D0BC0000000A028713DC0000000C017D9564000000000F0CB37C00000008028713DC0000000C017D956400C00000013000000720300003C000000060000000200000000000000FE2D0BC0000000A028713DC0000000C017D9564000000000FE2D0BC000000040EC8F3DC0000000E07DDC56400C
310
000000130000007A0300003C000000060000000200000000000000F0CB37C00000008028713DC0000000C017D9564000000000F0CB37C000000040EC8F3DC0000000E07DDC56400C00000013000000820300003C000000060000000200000000000000FE2D0BC000000040EC8F3DC0000000E07DDC564000000000F0CB37C0
310
00000040EC8F3DC0000000E07DDC56400C000000130000008A0300003C000000060000000200000000000000FE2D0BC000000040EC8F3DC0000000E07DDC564000000000FE2D0BC000000040A5963DC0000000C041E056400C00000013000000920300003C000000060000000200000000000000F0CB37C000000040EC8F3D
310
C0000000E07DDC564000000000F0CB37C000000040A5963DC0000000A041E056400C000000130000009A0300003C000000060000000200000000000000FE2D0BC000000040A5963DC0000000C041E0564000000000F0CB37C000000040A5963DC0000000A041E056400C00000013000000A20300003C000000060000000200
310
000000000000FE2D0BC000000040A5963DC0000000C041E0564000000000FE2D0BC00000008059973DC000000060D4E356400C00000013000000AA0300003C000000060000000200000000000000F0CB37C000000040A5963DC0000000A041E0564000000000F0CB37C00000004059973DC000000040D4E356400C00000013
310
000000B20300003C000000060000000200000000000000FE2D0BC00000008059973DC000000060D4E3564000000000F0CB37C00000004059973DC000000040D4E356400C00000013000000BA0300003C000000060000000200000000000000FE2D0BC00000008059973DC000000060D4E3564000000000FE2D0BC000000060
310
D19E3DC000000020E5E556400C00000013000000C20300003C000000060000000200000000000000F0CB37C00000004059973DC000000040D4E3564000000000F0CB37C000000060D19E3DC000000020E5E556400C00000013000000CA0300003C000000060000000200000000000000FE2D0BC000000060D19E3DC0000000
310
20E5E5564000000000F0CB37C000000060D19E3DC000000020E5E556400C00000013000000D20300003C000000060000000200000000000000FE2D0BC000000060D19E3DC000000020E5E5564000000000FE2D0BC000000060CCAD3DC00000004074E656400C00000013000000DA0300003C00000006000000020000000000
310
0000F0CB37C000000060D19E3DC000000020E5E5564000000000F0CB37C000000040CCAD3DC00000002074E656400C00000013000000E20300003C000000060000000200000000000000FE2D0BC000000060CCAD3DC00000004074E6564000000000F0CB37C000000040CCAD3DC00000002074E656400C00000013000000EA
310
0300003C000000060000000200000000000000FE2D0BC000000060CCAD3DC00000004074E6564000000000FE2D0BC00000004045BE3DC0000000E023E856400C00000013000000F20300003C000000060000000200000000000000F0CB37C000000040CCAD3DC00000002074E6564000000000F0CB37C00000004045BE3DC0
310
000000E023E856400C00000013000000FA0300003C000000060000000200000000000000FE2D0BC00000004045BE3DC0000000E023E8564000000000F0CB37C00000004045BE3DC0000000E023E856400C00000013000000020400003C000000060000000200000000000000FE2D0BC00000004045BE3DC0000000E023E856
310
4000000000FE2D0BC0000000A077C93DC00000002084EB56400C000000130000000A0400003C000000060000000200000000000000F0CB37C00000004045BE3DC0000000E023E8564000000000F0CB37C00000008077C93DC00000000084EB56400C00000013000000120400003C000000060000000200000000000000FE2D
310
0BC0000000A077C93DC00000002084EB564000000000F0CB37C00000008077C93DC00000000084EB56400C000000130000001A0400003C000000060000000200000000000000FE2D0BC0000000A077C93DC00000002084EB564000000000FE2D0BC00000004023CD3DC00000006094F056400C00000013000000220400003C
310
000000060000000200000000000000F0CB37C00000008077C93DC00000000084EB564000000000F0CB37C00000004023CD3DC00000008094F056400C000000130000002A0400003C000000060000000200000000000000FE2D0BC00000004023CD3DC00000006094F0564000000000F0CB37C00000004023CD3DC000000080
310
94F056400C00000013000000320400003C000000060000000200000000000000FE2D0BC00000004023CD3DC00000006094F0564000000000FE2D0BC0000000E0CFD33DC0000000A027FD56400C000000130000003A0400003C000000060000000200000000000000F0CB37C00000004023CD3DC00000008094F05640000000
310
00F0CB37C0000000C0CFD33DC0000000A027FD56400C00000013000000420400003C000000060000000200000000000000FE2D0BC0000000E0CFD33DC0000000A027FD564000000000F0CB37C0000000C0CFD33DC0000000A027FD56400C000000130000004A0400003C000000060000000200000000000000FE2D0BC00000
310
00E0CFD33DC0000000A027FD564000000000FE2D0BC0000000C033ED3DC000000060981257400C00000013000000520400003C000000060000000200000000000000F0CB37C0000000C0CFD33DC0000000A027FD564000000000F0CB37C0000000C033ED3DC000000040981257400C000000130000005A0400003C00000006
310
0000000200000000000000FE2D0BC0000000C033ED3DC0000000609812574000000000F0CB37C0000000C033ED3DC000000040981257400C00000013000000620400003C000000060000000200000000000000FE2D0BC0000000C033ED3DC0000000609812574000000000FE2D0BC000000000A3263EC0000000C010295740
310
0C000000130000006A0400003C000000060000000200000000000000F0CB37C0000000C033ED3DC0000000409812574000000000F0CB37C000000000A3263EC0000000A0102957400C00000013000000720400003C000000060000000200000000000000FE2D0BC000000000A3263EC0000000C01029574000000000F0CB37
310
C000000000A3263EC0000000A0102957400C000000130000007A0400003C000000060000000200000000000000FE2D0BC000000000A3263EC0000000C01029574000000000FE2D0BC00000006046663EC0000000805A3957400C00000013000000820400003C000000060000000200000000000000F0CB37C000000000A326
310
3EC0000000A01029574000000000F0CB37C00000004046663EC0000000605A3957400C000000130000008A0400003C000000060000000200000000000000FE2D0BC00000006046663EC0000000805A39574000000000F0CB37C00000004046663EC0000000605A3957400C00000013000000920400003C0000000600000002
310
00000000000000FE2D0BC00000006046663EC0000000805A39574000000000FE2D0BC0000000A0FCB03EC000000060F74557400C000000130000009A0400003C000000060000000200000000000000F0CB37C00000004046663EC0000000605A39574000000000F0CB37C000000080FCB03EC000000060F74557400C000000
310
13000000A20400003C000000060000000200000000000000FE2D0BC0000000A0FCB03EC000000060F745574000000000F0CB37C000000080FCB03EC000000060F74557400C00000013000000AA0400003C000000060000000200000000000000FE2D0BC0000000A0FCB03EC000000060F745574000000000FE2D0BC0000000
310
40AFFD3EC0000000E0B04B57400C00000013000000B20400003C000000060000000200000000000000F0CB37C000000080FCB03EC000000060F745574000000000F0CB37C000000040AFFD3EC0000000E0B04B57400C00000013000000BA0400003C000000060000000200000000000000FE2D0BC000000040AFFD3EC00000
310
00E0B04B574000000000F0CB37C000000040AFFD3EC0000000E0B04B57400C00000013000000C20400003C000000060000000200000000000000FE2D0BC000000080CAB93CC000000080DEE9564000000000FE2D0BC0000000C057CF3EC000000020837557400C00000013000000CA0400003C000000060000000200000000
310
000000F0CB37C0000000C057CF3EC0000000008375574000000000FE2D0BC0000000C057CF3EC000000020837557400C00000013000000D20400003C000000060000000200000000000000F0CB37C0000000C057CF3EC0000000008375574000000000F0CB37C000000080CAB93CC000000060DEE956400C00000013000000
310
DA0400003C000000060000000200000000000000FE2D0BC000000080CAB93CC000000080DEE9564000000000F0CB37C000000080CAB93CC000000060DEE956400C00000013000000E20400003C000000060000000200000000000000FE2D0BC000000040AFFD3EC0000000E0B04B574000000000FE2D0BC000000000650B3F
310
C0000000407C4E57400C00000013000000EA0400003C000000060000000200000000000000F0CB37C000000040AFFD3EC0000000E0B04B574000000000F0CB37C000000000650B3FC0000000207C4E57400C00000013000000F20400003C000000060000000200000000000000FE2D0BC000000000650B3FC0000000407C4E
310
574000000000F0CB37C000000000650B3FC0000000207C4E57400C00000013000000FA0400003C000000060000000200000000000000FE2D0BC000000000650B3FC0000000407C4E574000000000FE2D0BC000000080810F3FC0000000809B5257400C00000013000000020500003C000000060000000200000000000000F0
310
CB37C000000000650B3FC0000000207C4E574000000000F0CB37C000000080810F3FC0000000609B5257400C000000130000000A0500003C000000060000000200000000000000FE2D0BC000000080810F3FC0000000809B52574000000000F0CB37C000000080810F3FC0000000609B5257400C0000001300000012050000
310
3C000000060000000200000000000000FE2D0BC000000080810F3FC0000000809B52574000000000FE2D0BC000000080FF123FC000000080FB5357400C000000130000001A0500003C000000060000000200000000000000F0CB37C000000080810F3FC0000000609B52574000000000F0CB37C000000080FF123FC0000000
310
80FB5357400C00000013000000220500003C000000060000000200000000000000FE2D0BC000000080FF123FC000000080FB53574000000000F0CB37C000000080FF123FC000000080FB5357400C000000130000002A0500003C000000060000000200000000000000FE2D0BC000000080FF123FC000000080FB5357400000
310
0000FE2D0BC0000000401B1F3FC0000000C0FC5457400C00000013000000320500003C000000060000000200000000000000F0CB37C000000080FF123FC000000080FB53574000000000F0CB37C0000000401B1F3FC0000000E0FC5457400C000000130000003A0500003C000000060000000200000000000000FE2D0BC000
310
0000401B1F3FC0000000C0FC54574000000000F0CB37C0000000401B1F3FC0000000E0FC5457400C00000013000000420500003C000000060000000200000000000000FE2D0BC0000000401B1F3FC0000000C0FC54574000000000FE2D0BC0000000008E353FC000000060D55657400C000000130000004A0500003C000000
310
060000000200000000000000F0CB37C0000000401B1F3FC0000000E0FC54574000000000F0CB37C0000000008E353FC000000060D55657400C00000013000000520500003C000000060000000200000000000000FE2D0BC0000000008E353FC000000060D556574000000000F0CB37C0000000008E353FC000000060D55657
310
400C000000130000005A0500003C000000060000000200000000000000FE2D0BC0000000008E353FC000000060D556574000000000FE2D0BC0000000C0F8453FC0000000605E5A57400C00000013000000620500003C000000060000000200000000000000F0CB37C0000000008E353FC000000060D556574000000000F0CB
310
37C0000000C0F8453FC0000000605E5A57400C000000130000006A0500003C000000060000000200000000000000FE2D0BC0000000C0F8453FC0000000605E5A574000000000F0CB37C0000000C0F8453FC0000000605E5A57400C00000013000000720500003C000000060000000200000000000000FE2D0BC0000000C0F8
310
453FC0000000605E5A574000000000FE2D0BC0000000809A4C3FC000000000886057400C000000130000007A0500003C000000060000000200000000000000F0CB37C0000000C0F8453FC0000000605E5A574000000000F0CB37C0000000609A4C3FC000000000886057400C00000013000000820500003C00000006000000
310
0200000000000000FE2D0BC0000000809A4C3FC0000000008860574000000000F0CB37C0000000609A4C3FC000000000886057400C000000130000008A0500003C000000060000000200000000000000FE2D0BC0000000809A4C3FC0000000008860574000000000FE2D0BC0000000C0A74C3FC000000080DB6F57400C0000
310
0013000000920500003C000000060000000200000000000000F0CB37C0000000609A4C3FC0000000008860574000000000F0CB37C0000000C0A74C3FC000000080DB6F57400C000000130000009A0500003C000000060000000200000000000000FE2D0BC0000000C0A74C3FC000000080DB6F574000000000F0CB37C00000
310
00C0A74C3FC000000080DB6F57400C00000013000000A20500003C000000060000000200000000000000FE2D0BC0000000C0A74C3FC000000080DB6F574000000000FE2D0BC00000004045423FC000000040FF7357400C00000013000000AA0500003C000000060000000200000000000000F0CB37C0000000C0A74C3FC000
310
000080DB6F574000000000F0CB37C00000002045423FC000000020FF7357400C00000013000000B20500003C000000060000000200000000000000FE2D0BC00000004045423FC000000040FF73574000000000F0CB37C00000002045423FC000000020FF7357400C00000013000000BA0500003C0000000600000002000000
310
00000000FE2D0BC00000004045423FC000000040FF73574000000000FE2D0BC000000040722D3FC000000080AF7557400C00000013000000C20500003C000000060000000200000000000000F0CB37C00000002045423FC000000020FF73574000000000F0CB37C000000040722D3FC000000060AF7557400C000000130000
310
00CA0500003C000000060000000200000000000000FE2D0BC000000040722D3FC000000080AF75574000000000F0CB37C000000040722D3FC000000060AF7557400C00000013000000D20500003C000000060000000200000000000000FE2D0BC000000040722D3FC000000080AF75574000000000FE2D0BC0000000C05ED1
310
3EC000000080BA7557400C00000013000000DA0500003C000000060000000200000000000000F0CB37C000000040722D3FC000000060AF75574000000000F0CB37C0000000C05ED13EC000000080BA7557400C00000013000000E20500003C000000060000000200000000000000FE2D0BC0000000C05ED13EC000000080BA
310
75574000000000F0CB37C0000000C05ED13EC000000080BA7557400C00000013000000EA0500003C000000060000000200000000000000FE2D0BC000000020843D3AC0000000001DBE564000000000FE2D0BC000000000B73E3AC000000040D0BD56400C00000013000000F20500003C000000060000000200000000000000
310
F0CB37C000000000B73E3AC000000020D0BD564000000000F0CB37C000000000843D3AC0000000001DBE56400C00000013000000FA0500003C000000060000000200000000000000FE2D0BC0000000805D253CC000000040D0BD564000000000FE2D0BC00000006090263CC00000008083BD56400C00000013000000020600
310
003C000000060000000200000000000000F0CB37C00000004090263CC00000006083BD564000000000F0CB37C0000000605D253CC000000020D0BD56400C000000130000000A0600003C000000060000000200000000000000FE2D0BC000000000B73E3AC000000000A7E9564000000000FE2D0BC000000020843D3AC00000
310
00405AE956400C00000013000000120600003C000000060000000200000000000000F0CB37C000000000843D3AC0000000205AE9564000000000F0CB37C000000000B73E3AC0000000E0A6E956400C000000130000001A0600003C000000060000000200000000000000FE2D0BC0000000409B263CC000000000D78E564000
310
000000FE2D0BC000000040CE273CC0000000C08A8E56400C00000013000000220600003C000000060000000200000000000000F0CB37C000000040CE273CC0000000C08A8E564000000000F0CB37C0000000009B263CC000000000D78E56400C000000130000002A0600003C000000060000000200000000000000FE2D0BC0
310
00000080CAB93CC000000080DEE9564000000000FE2D0BC0000000A0C3B73CC000000000A7E956400C00000013000000320600003C000000060000000200000000000000F0CB37C000000080C3B73CC0000000E0A6E9564000000000F0CB37C000000080CAB93CC000000060DEE956400C000000130000003A0600003C0000
310
00060000000200000000000000FE2D0BC0000000C05ED13EC000000080BA75574000000000FE2D0BC0000000C057CF3EC000000020837557400C00000013000000420600003C000000060000000200000000000000F0CB37C0000000C057CF3EC0000000008375574000000000F0CB37C0000000C05ED13EC000000080BA75
310
57400C000000130000004A0600003C0000000600000002000000000000000A040BC0000000C0111F3CC000000080E43282BF000000000A040BC0000000E08F1E3CC00000006085720B400C00000013000000520600003C0000000600000002000000000000000A040BC0000000E08F1E3CC00000006085720B4000000080C0
310
D037C0000000E08F1E3CC00000006085720B400C000000130000005A0600003C000000060000000200000000000080C0D037C0000000C0111F3CC0000000C0B53282BF00000080C0D037C0000000E08F1E3CC00000006085720B400C00000013000000620600003C0000000600000002000000000000000A040BC0000000C0
310
111F3CC000000080E43282BF00000080C0D037C0000000C0111F3CC0000000C0B53282BF0C000000130000006A0600003C0000000600000002000000000000000A040BC0000000401DCB3CC0000000E0D43282BF000000000A040BC0000000401DCB3CC000000060BEC800400C00000013000000720600003C000000060000
310
0002000000000000000A040BC0000000401DCB3CC0000000E0D43282BF00000080C0D037C0000000401DCB3CC0000000C0B53282BF0C000000130000007A0600003C000000060000000200000000000080C0D037C0000000401DCB3CC0000000C0B53282BF00000080C0D037C0000000401DCB3CC000000060BFC800400C00
310
000013000000820600003C0000000600000002000000000000000A040BC0000000401DCB3CC000000060BEC8004000000080C0D037C0000000401DCB3CC000000060BFC800400C000000130000008A0600003C0000000600000002000000000000000A040BC0000000C0111F3CC000000080E43282BF000000000A040BC000
310
0000401DCB3CC0000000E0D43282BF0C00000013000000920600003C000000060000000200000000000080C0D037C0000000C0111F3CC0000000C0B53282BF00000080C0D037C0000000401DCB3CC0000000C0B53282BF0C000000130000009A0600003C0000000600000002000000000000000A040BC0000000401DCB3CC0
310
00000060BEC80040000000000A040BC00000002008BD3CC0000000408D0601400C00000013000000A20600003C000000060000000200000000000080C0D037C0000000401DCB3CC000000060BFC8004000000080C0D037C00000002008BD3CC0000000408E0601400C00000013000000AA0600003C00000006000000020000
310
00000000000A040BC00000002008BD3CC0000000408D06014000000080C0D037C00000002008BD3CC0000000408E0601400C00000013000000B20600003C0000000600000002000000000000000A040BC00000002008BD3CC0000000408D060140000000000A040BC000000000B4B63CC0000000207A3C01400C0000001300
310
0000BA0600003C000000060000000200000000000080C0D037C00000002008BD3CC0000000408E06014000000080C0D037C000000000B4B63CC0000000207A3C01400C00000013000000C20600003C0000000600000002000000000000000A040BC000000000B4B63CC0000000207A3C014000000080C0D037C000000000B4
310
B63CC0000000207A3C01400C00000013000000CA0600003C0000000600000002000000000000000A040BC000000000B4B63CC0000000207A3C0140000000000A040BC0000000C037B43CC000000060B27B01400C00000013000000D20600003C000000060000000200000000000080C0D037C000000000B4B63CC000000020
310
7A3C014000000080C0D037C0000000C037B43CC000000000B37B01400C00000013000000DA0600003C0000000600000002000000000000000A040BC0000000C037B43CC000000060B27B014000000080C0D037C0000000C037B43CC000000000B37B01400C00000013000000E20600003C0000000600000002000000000000
310
000A040BC0000000C037B43CC000000060B27B0140000000000A040BC0000000201AB83CC0000000C079BF01400C00000013000000EA0600003C000000060000000200000000000080C0D037C0000000C037B43CC000000000B37B014000000080C0D037C0000000001AB83CC00000008079BF01400C00000013000000F206
310
00003C0000000600000002000000000000000A040BC0000000201AB83CC0000000C079BF014000000080C0D037C0000000001AB83CC00000008079BF01400C00000013000000FA0600003C0000000600000002000000000000000A040BC0000000201AB83CC0000000C079BF0140000000000A040BC0000000809DC03CC000
310
0000C01FDE01400C00000013000000020700003C000000060000000200000000000080C0D037C0000000001AB83CC00000008079BF014000000080C0D037C0000000809DC03CC0000000C01FDE01400C000000130000000A0700003C0000000600000002000000000000000A040BC0000000809DC03CC0000000C01FDE0140
310
00000080C0D037C0000000809DC03CC0000000C01FDE01400C00000013000000120700003C0000000600000002000000000000000A040BC0000000809DC03CC0000000C01FDE0140000000000A040BC00000000047CA3CC000000040552302400C000000130000001A0700003C000000060000000200000000000080C0D037
310
C0000000809DC03CC0000000C01FDE014000000080C0D037C00000000047CA3CC000000000562302400C00000013000000220700003C0000000600000002000000000000000A040BC00000000047CA3CC0000000405523024000000080C0D037C00000000047CA3CC000000000562302400C000000130000002A0700003C00
310
00000600000002000000000000000A040BC00000000047CA3CC00000004055230240000000000A040BC0000000C0E9CE3CC0000000A05B7602400C00000013000000320700003C000000060000000200000000000080C0D037C00000000047CA3CC0000000005623024000000080C0D037C0000000C0E9CE3CC0000000205C
310
7602400C000000130000003A0700003C0000000600000002000000000000000A040BC0000000C0E9CE3CC0000000A05B76024000000080C0D037C0000000C0E9CE3CC0000000205C7602400C00000013000000420700003C0000000600000002000000000000000A040BC0000000C0E9CE3CC0000000A05B76024000000000
310
0A040BC0000000406BCC3CC0000000604BC802400C000000130000004A0700003C000000060000000200000000000080C0D037C0000000C0E9CE3CC0000000205C76024000000080C0D037C0000000406BCC3CC0000000004CC802400C00000013000000520700003C0000000600000002000000000000000A040BC0000000
310
406BCC3CC0000000604BC8024000000080C0D037C0000000406BCC3CC0000000004CC802400C000000130000005A0700003C0000000600000002000000000000000A040BC0000000406BCC3CC0000000604BC80240000000000A040BC0000000203EB63CC000000060811D04400C00000013000000620700003C0000000600
310
00000200000000000080C0D037C0000000406BCC3CC0000000004CC8024000000080C0D037C0000000203EB63CC0000000E0811D04400C000000130000006A0700003C0000000600000002000000000000000A040BC0000000203EB63CC000000060811D044000000080C0D037C0000000203EB63CC0000000E0811D04400C
310
00000013000000720700003C0000000600000002000000000000000A040BC0000000203EB63CC000000060811D0440000000000A040BC00000000095A73CC0000000E0386205400C000000130000007A0700003C000000060000000200000000000080C0D037C0000000203EB63CC0000000E0811D044000000080C0D037C0
310
0000000095A73CC0000000E0386205400C00000013000000820700003C0000000600000002000000000000000A040BC00000000095A73CC0000000E03862054000000080C0D037C00000000095A73CC0000000E0386205400C000000130000008A0700003C0000000600000002000000000000000A040BC00000000095A73C
310
C0000000E038620540000000000A040BC000000080C29D3CC0000000A0A7A906400C00000013000000920700003C000000060000000200000000000080C0D037C00000000095A73CC0000000E03862054000000080C0D037C000000080C29D3CC0000000A0A7A906400C000000130000009A0700003C000000060000000200
310
0000000000000A040BC000000080C29D3CC0000000A0A7A9064000000080C0D037C000000080C29D3CC0000000A0A7A906400C00000013000000A20700003C0000000600000002000000000000000A040BC000000080C29D3CC0000000A0A7A90640000000000A040BC0000000A0999B3CC0000000E0DD7D08400C00000013
310
000000AA0700003C000000060000000200000000000080C0D037C000000080C29D3CC0000000A0A7A9064000000080C0D037C000000080999B3CC000000020DE7D08400C00000013000000B20700003C0000000600000002000000000000000A040BC0000000A0999B3CC0000000E0DD7D084000000080C0D037C000000080
310
999B3CC000000020DE7D08400C00000013000000BA0700003C0000000600000002000000000000000A040BC0000000A0999B3CC0000000E0DD7D0840000000000A040BC000000060199E3CC000000000FA5A09400C00000013000000C20700003C000000060000000200000000000080C0D037C000000080999B3CC0000000
310
20DE7D084000000080C0D037C000000040199E3CC000000040FA5A09400C00000013000000CA0700003C0000000600000002000000000000000A040BC000000060199E3CC000000000FA5A094000000080C0D037C000000040199E3CC000000040FA5A09400C00000013000000D20700003C00000006000000020000000000
310
00000A040BC000000060199E3CC000000000FA5A0940000000000A040BC00000004097A73CC0000000E0FC9B09400C00000013000000DA0700003C000000060000000200000000000080C0D037C000000040199E3CC000000040FA5A094000000080C0D037C00000002097A73CC000000060FD9B09400C00000013000000E2
310
0700003C0000000600000002000000000000000A040BC00000004097A73CC0000000E0FC9B094000000080C0D037C00000002097A73CC000000060FD9B09400C00000013000000EA0700003C0000000600000002000000000000000A040BC00000004097A73CC0000000E0FC9B0940000000000A040BC0000000C054AD3CC0
310
0000000084E509400C00000013000000F20700003C000000060000000200000000000080C0D037C00000002097A73CC000000060FD9B094000000080C0D037C0000000C054AD3CC00000000084E509400C00000013000000FA0700003C0000000600000002000000000000000A040BC0000000C054AD3CC00000000084E509
310
4000000080C0D037C0000000C054AD3CC00000000084E509400C00000013000000020800003C0000000600000002000000000000000A040BC0000000C054AD3CC00000000084E50940000000000A040BC00000004014AD3CC0000000001E280A400C000000130000000A0800003C000000060000000200000000000080C0D0
310
37C0000000C054AD3CC00000000084E5094000000080C0D037C00000002014AD3CC0000000C01D280A400C00000013000000120800003C0000000600000002000000000000000A040BC00000004014AD3CC0000000001E280A4000000080C0D037C00000002014AD3CC0000000C01D280A400C000000130000001A0800003C
310
0000000600000002000000000000000A040BC00000004014AD3CC0000000001E280A40000000000A040BC000000000FAA93CC0000000C0CC630A400C00000013000000220800003C000000060000000200000000000080C0D037C00000002014AD3CC0000000C01D280A4000000080C0D037C000000000FAA93CC0000000C0
310
CC630A400C000000130000002A0800003C0000000600000002000000000000000A040BC000000000FAA93CC0000000C0CC630A4000000080C0D037C000000000FAA93CC0000000C0CC630A400C00000013000000320800003C0000000600000002000000000000000A040BC000000000FAA93CC0000000C0CC630A40000000
310
000A040BC0000000A0E2A23CC000000000BB910A400C000000130000003A0800003C000000060000000200000000000080C0D037C000000000FAA93CC0000000C0CC630A4000000080C0D037C000000080E2A23CC000000080BA910A400C00000013000000420800003C0000000600000002000000000000000A040BC00000
310
00A0E2A23CC000000000BB910A4000000080C0D037C000000080E2A23CC000000080BA910A400C000000130000004A0800003C0000000600000002000000000000000A040BC0000000A0E2A23CC000000000BB910A40000000000A040BC0000000003B9B3CC0000000E05CAD0A400C00000013000000520800003C00000006
310
0000000200000000000080C0D037C000000080E2A23CC000000080BA910A4000000080C0D037C0000000003B9B3CC0000000205DAD0A400C000000130000005A0800003C0000000600000002000000000000000A040BC0000000003B9B3CC0000000E05CAD0A4000000080C0D037C0000000003B9B3CC0000000205DAD0A40
310
0C00000013000000620800003C0000000600000002000000000000000A040BC0000000003B9B3CC0000000E05CAD0A40000000000A040BC00000002026963CC0000000C0E4E80A400C000000130000006A0800003C000000060000000200000000000080C0D037C0000000003B9B3CC0000000205DAD0A4000000080C0D037
310
C00000002026963CC000000040E5E80A400C00000013000000720800003C0000000600000002000000000000000A040BC00000002026963CC0000000C0E4E80A4000000080C0D037C00000002026963CC000000040E5E80A400C000000130000007A0800003C0000000600000002000000000000000A040BC0000000202696
310
3CC0000000C0E4E80A40000000000A040BC000000080C9903CC000000020CB1F0B400C00000013000000820800003C000000060000000200000000000080C0D037C00000002026963CC000000040E5E80A4000000080C0D037C000000060C9903CC000000020CB1F0B400C000000130000008A0800003C0000000600000002
310
000000000000000A040BC000000080C9903CC000000020CB1F0B4000000080C0D037C000000060C9903CC000000020CB1F0B400C00000013000000920800003C0000000600000002000000000000000A040BC000000080C9903CC000000020CB1F0B40000000000A040BC000000000DC8A3CC000000020CA4F0B400C000000
310
130000009A0800003C000000060000000200000000000080C0D037C000000060C9903CC000000020CB1F0B4000000080C0D037C000000000DC8A3CC000000020CA4F0B400C00000013000000A20800003C0000000600000002000000000000000A040BC000000000DC8A3CC000000020CA4F0B4000000080C0D037C0000000
310
00DC8A3CC000000020CA4F0B400C00000013000000AA0800003C0000000600000002000000000000000A040BC000000000DC8A3CC000000020CA4F0B40000000000A040BC000000000A7843CC0000000A053740B400C00000013000000B20800003C000000060000000200000000000080C0D037C000000000DC8A3CC00000
310
0020CA4F0B4000000080C0D037C000000000A7843CC0000000A053740B400C00000013000000BA0800003C0000000600000002000000000000000A040BC000000000A7843CC0000000A053740B4000000080C0D037C000000000A7843CC0000000A053740B400C00000013000000C20800003C000000060000000200000000
310
0000000A040BC0000000E08F1E3CC00000006085720B40000000000A040BC000000000A7843CC0000000A053740B400C00000013000000CA0800003C000000060000000200000000000080C0D037C0000000E08F1E3CC00000006085720B4000000080C0D037C000000000A7843CC0000000A053740B400C00000013000000
310
D20800003C000000060000000200000000000000D79E11C000000080081E3CC000000020969F4F4000000000D79E11C00000004048A720C000000020969F4F400C00000013000000DA0800003C000000060000000200000000000000D79E11C00000004048A720C000000020969F4F4000000000D79E11C00000004048A720
310
C0000000E0F80650400C00000013000000E20800003C000000060000000200000000000000D79E11C00000004048A720C0000000E0F806504000000000D79E11C000000080081E3CC0000000E0F80650400C00000013000000EA0800003C000000060000000200000000000000D79E11C000000080081E3CC000000020969F
310
4F4000000000D79E11C000000080081E3CC0000000E0F80650400C00000013000000F20800003C00000006000000020000000000000095FE36C000000040081E3CC000000020969F4F400000000095FE36C000000040081E3CC0000000E0F80650400C00000013000000FA0800003C00000006000000020000000000000095
310
FE36C000000040081E3CC0000000E0F80650400000000095FE36C00000002048A720C0000000E0F80650400C00000013000000020900003C00000006000000020000000000000095FE36C00000002048A720C0000000E0F80650400000000095FE36C00000002048A720C000000020969F4F400C000000130000000A090000
310
3C00000006000000020000000000000095FE36C000000040081E3CC000000020969F4F400000000095FE36C00000002048A720C000000020969F4F400C00000013000000120900003C000000060000000200000000000000D79E11C000000080081E3CC0000000E0F80650400000000095FE36C000000040081E3CC0000000
310
E0F80650400C000000130000001A0900003C000000060000000200000000000000D79E11C000000080081E3CC000000020969F4F400000000095FE36C000000040081E3CC000000020969F4F400C00000013000000220900003C000000060000000200000000000000D79E11C00000004048A720C0000000E0F80650400000
310
000095FE36C00000002048A720C0000000E0F80650400C000000130000002A0900003C000000060000000200000000000000D79E11C00000004048A720C000000020969F4F400000000095FE36C00000002048A720C000000020969F4F400C00000013000000320900003C000000060000000200000000000000D79E11C000
310
000060081E3CC0000000201A69534000000000D79E11C00000006048A720C0000000201A6953400C000000130000003A0900003C000000060000000200000000000000D79E11C00000006048A720C0000000201A69534000000000D79E11C00000006048A720C00000000048A053400C00000013000000420900003C000000
310
060000000200000000000000D79E11C00000006048A720C00000000048A0534000000000D79E11C000000060081E3CC00000000048A053400C000000130000004A0900003C000000060000000200000000000000D79E11C000000060081E3CC0000000201A69534000000000D79E11C000000060081E3CC00000000048A053
310
400C00000013000000520900003C00000006000000020000000000000095FE36C000000040081E3CC0000000201A6953400000000095FE36C000000040081E3CC00000000048A053400C000000130000005A0900003C00000006000000020000000000000095FE36C000000040081E3CC00000000048A053400000000095FE
310
36C00000004048A720C00000000048A053400C00000013000000620900003C00000006000000020000000000000095FE36C00000004048A720C00000000048A053400000000095FE36C00000004048A720C0000000201A6953400C000000130000006A0900003C00000006000000020000000000000095FE36C00000004008
310
1E3CC0000000201A6953400000000095FE36C00000004048A720C0000000201A6953400C00000013000000720900003C000000060000000200000000000000D79E11C000000060081E3CC00000000048A053400000000095FE36C000000040081E3CC00000000048A053400C000000130000007A0900003C00000006000000
310
0200000000000000D79E11C000000060081E3CC0000000201A6953400000000095FE36C000000040081E3CC0000000201A6953400C00000013000000820900003C000000060000000200000000000000D79E11C00000006048A720C00000000048A053400000000095FE36C00000004048A720C00000000048A053400C0000
310
00130000008A0900003C000000060000000200000000000000D79E11C00000006048A720C0000000201A6953400000000095FE36C00000004048A720C0000000201A6953400C00000013000000920900003C000000060000000200000000000000C49711C000000060081E3CC0000000E03C6A404000000000C49711C00000
310
008048A720C0000000E03C6A40400C000000130000009A0900003C000000060000000200000000000000C49711C00000008048A720C0000000E03C6A404000000000C49711C00000006048A720C0000000A098D840400C00000013000000A20900003C000000060000000200000000000000C49711C00000006048A720C000
310
0000A098D8404000000000C49711C000000040081E3CC0000000A098D840400C00000013000000AA0900003C000000060000000200000000000000C49711C000000060081E3CC0000000E03C6A404000000000C49711C000000040081E3CC0000000A098D840400C00000013000000B20900003C0000000600000002000000
310
00000000D0FC36C000000040081E3CC0000000E03C6A404000000000D0FC36C000000000081E3CC0000000A098D840400C00000013000000BA0900003C000000060000000200000000000000D0FC36C000000000081E3CC0000000A098D8404000000000D0FC36C00000006048A720C0000000A098D840400C000000130000
310
00C20900003C000000060000000200000000000000D0FC36C00000006048A720C0000000A098D8404000000000D0FC36C00000008048A720C0000000E03C6A40400C00000013000000CA0900003C000000060000000200000000000000D0FC36C000000040081E3CC0000000E03C6A404000000000D0FC36C00000008048A7
310
20C0000000E03C6A40400C00000013000000D20900003C000000060000000200000000000000C49711C000000040081E3CC0000000A098D8404000000000D0FC36C000000000081E3CC0000000A098D840400C00000013000000DA0900003C000000060000000200000000000000C49711C000000060081E3CC0000000E03C
310
6A404000000000D0FC36C000000040081E3CC0000000E03C6A40400C00000013000000E20900003C000000060000000200000000000000C49711C00000006048A720C0000000A098D8404000000000D0FC36C00000006048A720C0000000A098D840400C00000013000000EA0900003C000000060000000200000000000000
310
C49711C00000008048A720C0000000E03C6A404000000000D0FC36C00000008048A720C0000000E03C6A40400C00000013000000F20900003C000000060000000200000000000000D79E11C000000040081E3CC000000080C5DA084000000000D79E11C00000004048A720C000000040C5DA08400C00000013000000FA0900
310
003C000000060000000200000000000000D79E11C00000004048A720C000000040C5DA084000000000D79E11C00000004048A720C00000008080C00F400C00000013000000020A00003C000000060000000200000000000000D79E11C00000004048A720C00000008080C00F4000000000D79E11C000000040081E3CC00000
310
00C080C00F400C000000130000000A0A00003C000000060000000200000000000000D79E11C000000040081E3CC000000080C5DA084000000000D79E11C000000040081E3CC0000000C080C00F400C00000013000000120A00003C00000006000000020000000000000095FE36C000000040081E3CC000000080C5DA084000
310
00000095FE36C000000040081E3CC0000000C080C00F400C000000130000001A0A00003C00000006000000020000000000000095FE36C000000040081E3CC0000000C080C00F400000000095FE36C00000002048A720C00000008080C00F400C00000013000000220A00003C00000006000000020000000000000095FE36C0
310
0000002048A720C00000008080C00F400000000095FE36C00000002048A720C000000040C5DA08400C000000130000002A0A00003C00000006000000020000000000000095FE36C000000040081E3CC000000080C5DA08400000000095FE36C00000002048A720C000000040C5DA08400C00000013000000320A00003C0000
310
00060000000200000000000000D79E11C000000040081E3CC0000000C080C00F400000000095FE36C000000040081E3CC0000000C080C00F400C000000130000003A0A00003C000000060000000200000000000000D79E11C000000040081E3CC000000080C5DA08400000000095FE36C000000040081E3CC000000080C5DA
310
08400C00000013000000420A00003C000000060000000200000000000000D79E11C00000004048A720C00000008080C00F400000000095FE36C00000002048A720C00000008080C00F400C000000130000004A0A00003C000000060000000200000000000000D79E11C00000004048A720C000000040C5DA08400000000095
310
FE36C00000002048A720C000000040C5DA0840
100
AcDbSubDMesh
 71
     2
 72
     0
 91
        0
 92
      220
 10
-23.78419494628906
 20
-28.1173152923584
 30
0.0
 10
-22.92202758789063
 20
-28.1173152923584
 30
0.0
 10
-23.78419494628906
 20
-8.326719284057617
 30
0.0
 10
-22.92202758789063
 20
-8.326719284057617
 30
0.0
 10
-23.78419494628906
 20
-28.1173152923584
 30
91.36211395263671
 10
-22.92202758789063
 20
-28.1173152923584
 30
91.36211395263671
 10
-23.78419494628906
 20
-8.32672119140625
 30
91.36211395263671
 10
-22.92202758789063
 20
-8.32672119140625
 30
91.36211395263671
 10
-4.236331939697265
 20
-28.1173152923584
 30
0.0
 10
-4.236331939697265
 20
-8.3267183303833
 30
0.0
 10
-3.374164581298828
 20
-8.3267183303833
 30
0.0
 10
-3.374164581298828
 20
-28.1173152923584
 30
0.0
 10
-4.236331939697265
 20
-28.1173152923584
 30
91.36212158203125
 10
-3.374164581298828
 20
-28.1173152923584
 30
91.36212158203125
 10
-3.374164581298828
 20
-8.3267183303833
 30
91.36212158203125
 10
-4.236331939697265
 20
-8.3267183303833
 30
91.36212158203125
 10
-4.405117034912109
 20
-28.1173152923584
 30
47.76020050048828
 10
-4.405117034912109
 20
-8.326723098754882
 30
47.76020431518555
 10
-4.405117034912109
 20
-8.326723098754882
 30
48.62237167358398
 10
-4.405117034912109
 20
-28.1173152923584
 30
48.62236785888672
 10
-22.99446105957031
 20
-28.11731338500976
 30
47.76020050048828
 10
-22.99446105957031
 20
-28.11731338500976
 30
48.62236785888672
 10
-22.99446105957031
 20
-8.326722145080566
 30
48.62237167358398
 10
-22.99446105957031
 20
-8.326722145080566
 30
47.76020431518555
 10
-4.263137817382812
 20
-28.11731910705566
 30
90.52162170410156
 10
-4.263137817382812
 20
-8.326722145080566
 30
90.52162170410156
 10
-4.263137817382812
 20
-8.326722145080566
 30
91.38379669189452
 10
-4.263137817382812
 20
-28.11731910705566
 30
91.38379669189452
 10
-22.99445343017578
 20
-28.1173152923584
 30
90.52162170410156
 10
-22.99445343017578
 20
-28.1173152923584
 30
91.38379669189452
 10
-22.99446105957031
 20
-8.32672119140625
 30
91.38379669189452
 10
-22.99446105957031
 20
-8.32672119140625
 30
90.52162170410156
 10
-4.263435363769531
 20
-8.505516052246093
 30
0.3309323489665985
 10
-4.263130187988281
 20
-8.505516052246093
 30
90.76649475097656
 10
-4.263126373291015
 20
-8.798006057739257
 30
90.76649475097656
 10
-4.263431549072265
 20
-8.798006057739257
 30
0.3309323489665985
 10
-22.99475860595703
 20
-8.506086349487304
 30
0.331511378288269
 10
-22.9947509765625
 20
-8.798578262329101
 30
0.331511378288269
 10
-22.99444580078125
 20
-8.798580169677734
 30
90.76705932617187
 10
-22.99445343017578
 20
-8.506092071533203
 30
90.76705932617187
 10
-3.397457122802734
 20
-26.24029731750488
 30
90.97052001953125
 10
-3.397457122802734
 20
-28.14595794677734
 30
90.96583557128907
 10
-3.397457122802734
 20
-26.24497985839844
 30
91.65081787109375
 10
-3.397457122802734
 20
-29.18935775756836
 30
91.39207458496093
 10
-3.397457122802734
 20
-28.15080642700195
 30
90.23187255859374
 10
-3.397457122802734
 20
-29.21822738647461
 30
91.22731781005859
 10
-3.397457122802734
 20
-29.16537094116211
 30
90.88654327392578
 10
-3.397457122802734
 20
-29.18251419067383
 30
90.74585723876953
 10
-3.397457122802734
 20
-29.18251419067383
 30
90.68168640136718
 10
-3.397457122802734
 20
-29.30242538452148
 30
90.60915374755859
 10
-3.397457122802734
 20
-29.3434066772461
 30
90.50405120849609
 10
-3.397457122802734
 20
-29.33737373352051
 30
90.35794067382813
 10
-3.397457122802734
 20
-29.29316711425781
 30
90.2648696899414
 10
-3.397457122802734
 20
-29.23725128173828
 30
90.23357391357421
 10
-3.397457122802734
 20
-29.44202613830567
 30
91.39207458496093
 10
-3.397457122802734
 20
-29.56219863891602
 30
91.44518280029297
 10
-3.397457122802734
 20
-29.58845901489258
 30
91.50401306152344
 10
-3.397457122802734
 20
-29.5912094116211
 30
91.5598373413086
 10
-3.397457122802734
 20
-29.62038230895996
 30
91.59210968017578
 10
-3.397457122802734
 20
-29.67889976501465
 30
91.60084533691406
 10
-3.397457122802734
 20
-29.74324417114258
 30
91.62718963623047
 10
-3.397457122802734
 20
-29.7869815826416
 30
91.67993927001953
 10
-3.397457122802734
 20
-29.80131912231446
 30
91.75905609130859
 10
-3.397457122802734
 20
-29.82739067077637
 30
91.9555435180664
 10
-3.397457122802734
 20
-29.92657089233399
 30
92.29055023193359
 10
-3.397457122802734
 20
-30.15092468261719
 30
92.64164733886719
 10
-3.397457122802734
 20
-30.39951133728028
 30
92.89614868164063
 10
-3.397457122802734
 20
-30.69135475158692
 30
93.09322357177734
 10
-3.397457122802734
 20
-28.72574615478516
 30
91.65420532226562
 10
-3.397457122802734
 20
-30.9909553527832
 30
93.18267059326172
 10
-3.397457122802734
 20
-31.04450988769531
 30
93.22633361816405
 10
-3.397457122802734
 20
-31.0605697631836
 30
93.29074096679688
 10
-3.397457122802734
 20
-31.07421112060547
 30
93.31222534179687
 10
-3.397457122802734
 20
-31.12150955200196
 30
93.32792663574219
 10
-3.397457122802734
 20
-31.20919799804688
 30
93.35677337646485
 10
-3.397457122802734
 20
-31.2733268737793
 30
93.4120101928711
 10
-3.397457122802734
 20
-31.29923248291016
 30
93.50830078125
 10
-3.397457122802734
 20
-31.29943466186523
 30
93.74777221679687
 10
-3.397457122802734
 20
-31.25886917114258
 30
93.81245422363281
 10
-3.397457122802734
 20
-31.17752456665039
 30
93.83883666992188
 10
-3.397457122802734
 20
-30.81785202026367
 30
93.83950805664062
 10
-23.796630859375
 20
-26.24497985839844
 30
90.96582794189453
 10
-23.796630859375
 20
-28.15063858032227
 30
90.96114349365235
 10
-23.796630859375
 20
-26.24029541015625
 30
91.64612579345703
 10
-23.796630859375
 20
-29.18935394287109
 30
91.39207458496093
 10
-23.796630859375
 20
-28.15549087524414
 30
90.22721862792968
 10
-23.796630859375
 20
-29.21822738647461
 30
91.22731781005859
 10
-23.796630859375
 20
-29.16536903381348
 30
90.88654327392578
 10
-23.796630859375
 20
-29.18251419067383
 30
90.745849609375
 10
-23.796630859375
 20
-29.18251419067383
 30
90.68168640136718
 10
-23.796630859375
 20
-29.30242538452148
 30
90.60914611816405
 10
-23.796630859375
 20
-29.3434066772461
 30
90.50405120849609
 10
-23.796630859375
 20
-29.33737182617188
 30
90.35793304443359
 10
-23.796630859375
 20
-29.29316711425781
 30
90.2648696899414
 10
-23.796630859375
 20
-29.23725128173828
 30
90.23357391357421
 10
-23.796630859375
 20
-29.44202423095703
 30
91.39207458496093
 10
-23.796630859375
 20
-29.56219863891602
 30
91.44518280029297
 10
-23.796630859375
 20
-29.58845901489258
 30
91.5040054321289
 10
-23.796630859375
 20
-29.59120559692383
 30
91.55982971191406
 10
-23.796630859375
 20
-29.62038230895996
 30
91.59210968017578
 10
-23.796630859375
 20
-29.67889785766601
 30
91.60083770751953
 10
-23.796630859375
 20
-29.74324417114258
 30
91.62718963623047
 10
-23.796630859375
 20
-29.78697967529297
 30
91.67993164062499
 10
-23.796630859375
 20
-29.80131912231446
 30
91.75906372070313
 10
-23.796630859375
 20
-29.82738876342774
 30
91.9555435180664
 10
-23.796630859375
 20
-29.92657089233399
 30
92.29054260253906
 10
-23.796630859375
 20
-30.15092468261719
 30
92.64163970947265
 10
-23.796630859375
 20
-30.39950942993164
 30
92.89614105224609
 10
-23.796630859375
 20
-30.69135284423828
 30
93.09322357177734
 10
-23.796630859375
 20
-28.71782684326172
 30
91.65081024169921
 10
-23.796630859375
 20
-30.9909553527832
 30
93.18267059326172
 10
-23.796630859375
 20
-31.04450988769531
 30
93.22632598876953
 10
-23.796630859375
 20
-31.0605697631836
 30
93.29073333740234
 10
-23.796630859375
 20
-31.07421112060547
 30
93.31222534179687
 10
-23.796630859375
 20
-31.12150955200196
 30
93.32793426513672
 10
-23.796630859375
 20
-31.20919799804688
 30
93.35677337646485
 10
-23.796630859375
 20
-31.2733268737793
 30
93.4120101928711
 10
-23.796630859375
 20
-31.29923057556152
 30
93.50830078125
 10
-23.796630859375
 20
-31.29943466186523
 30
93.74777221679687
 10
-23.796630859375
 20
-31.25886726379395
 30
93.81244659423828
 10
-23.796630859375
 20
-31.17752456665039
 30
93.83882904052734
 10
-23.796630859375
 20
-30.80993270874023
 30
93.83612060546875
 10
-3.397457122802734
 20
-26.24497985839844
 30
90.96583557128907
 10
-3.397457122802734
 20
-28.1506404876709
 30
90.96115112304687
 10
-3.397457122802734
 20
-26.24029731750488
 30
91.64613342285155
 10
-3.397457122802734
 20
-28.15549087524414
 30
90.22721862792968
 10
-3.397457122802734
 20
-28.71782875061035
 30
91.65081787109375
 10
-3.397457122802734
 20
-30.80993270874023
 30
93.83612823486329
 10
-23.796630859375
 20
-26.24029541015625
 30
90.97052001953125
 10
-23.796630859375
 20
-28.14595603942871
 30
90.96582794189453
 10
-23.796630859375
 20
-26.24497985839844
 30
91.65081024169921
 10
-23.796630859375
 20
-28.15080261230469
 30
90.23187255859374
 10
-23.796630859375
 20
-28.72574615478516
 30
91.6541976928711
 10
-23.796630859375
 20
-30.81785202026367
 30
93.83950805664062
 10
-3.376972198486328
 20
-28.12136459350586
 30
-0.008886132389307
 10
-3.376972198486328
 20
-28.79341506958008
 30
-0.0088860159739852
 10
-3.376972198486328
 20
-28.79341506958008
 30
2.098019361495971
 10
-3.376972198486328
 20
-28.73840522766113
 30
2.128199100494384
 10
-3.376972198486328
 20
-28.71368408203125
 30
2.154529809951782
 10
-3.376972198486328
 20
-28.70397567749023
 30
2.185398817062377
 10
-3.376972198486328
 20
-28.71914863586426
 30
2.218493938446044
 10
-3.376972198486328
 20
-28.75240325927734
 30
2.233458995819091
 10
-3.376972198486328
 20
-28.79014587402344
 30
2.267252445220947
 10
-3.376972198486328
 20
-28.80825424194336
 30
2.307791948318481
 10
-3.376972198486328
 20
-28.79851150512696
 30
2.347800016403198
 10
-3.376972198486328
 20
-28.71188545227051
 30
2.51440691947937
 10
-3.376972198486328
 20
-28.65461730957031
 30
2.672960042953491
 10
-3.376972198486328
 20
-28.61624908447266
 30
2.832839250564575
 10
-3.376972198486328
 20
-28.60781288146973
 30
3.061458349227905
 10
-3.376972198486328
 20
-28.61757469177246
 30
3.169422149658203
 10
-3.376972198486328
 20
-28.6546516418457
 30
3.201165914535522
 10
-3.376972198486328
 20
-28.67707443237305
 30
3.237068176269531
 10
-3.376972198486328
 20
-28.67609024047851
 30
3.269588470458984
 10
-3.376972198486328
 20
-28.66397094726563
 30
3.298730373382568
 10
-3.376972198486328
 20
-28.63627052307129
 30
3.321157455444335
 10
-3.376972198486328
 20
-28.60636901855469
 30
3.334649801254272
 10
-3.376972198486328
 20
-28.58651924133301
 30
3.363717555999755
 10
-3.376972198486328
 20
-28.56557464599609
 30
3.39052414894104
 10
-3.376972198486328
 20
-28.54241943359375
 30
3.413959741592407
 10
-3.376972198486328
 20
-28.11938285827637
 30
3.430918455123901
 10
-3.376972198486328
 20
-28.51817321777344
 30
3.431800127029418
 10
-23.81543731689453
 20
-28.12136459350586
 30
-0.0088857840746641
 10
-23.81543731689453
 20
-28.79341506958008
 30
-0.0088857840746641
 10
-23.81543731689453
 20
-28.79341506958008
 30
2.098021268844604
 10
-23.81543731689453
 20
-28.73840522766113
 30
2.128201007843017
 10
-23.81543731689453
 20
-28.71368408203125
 30
2.154529809951782
 10
-23.81543731689453
 20
-28.70397567749023
 30
2.185400009155273
 10
-23.81543731689453
 20
-28.71914672851563
 30
2.218493461608886
 10
-23.81543731689453
 20
-28.75240325927734
 30
2.233458995819091
 10
-23.81543731689453
 20
-28.79014587402344
 30
2.267253875732421
 10
-23.81543731689453
 20
-28.80825424194336
 30
2.307792901992797
 10
-23.81543731689453
 20
-28.79851150512696
 30
2.347801208496093
 10
-23.81543731689453
 20
-28.71188545227051
 30
2.514407873153686
 10
-23.81543731689453
 20
-28.65461730957031
 30
2.672960042953491
 10
-23.81543731689453
 20
-28.61624908447266
 30
2.832839250564575
 10
-23.81543731689453
 20
-28.6078109741211
 30
3.061458826065063
 10
-23.81543731689453
 20
-28.61757278442383
 30
3.169422626495361
 10
-23.81543731689453
 20
-28.65464973449707
 30
3.201166868209838
 10
-23.81543731689453
 20
-28.67707443237305
 30
3.237068176269531
 10
-23.81543731689453
 20
-28.67608833312988
 30
3.269587993621826
 10
-23.81543731689453
 20
-28.66397094726563
 30
3.298730373382568
 10
-23.81543731689453
 20
-28.63626861572266
 30
3.321156501770019
 10
-23.81543731689453
 20
-28.60636901855469
 30
3.33465027809143
 10
-23.81543731689453
 20
-28.58651924133301
 30
3.363718509674072
 10
-23.81543731689453
 20
-28.56557273864746
 30
3.39052414894104
 10
-23.81543731689453
 20
-28.54241943359375
 30
3.413959741592407
 10
-23.81543731689453
 20
-28.11938285827637
 30
3.430918455123901
 10
-23.81543731689453
 20
-28.51817321777344
 30
3.431800127029418
 10
-4.405117034912109
 20
-28.11731719970703
 30
63.24676895141601
 10
-4.405117034912109
 20
-8.326723098754882
 30
63.24676895141601
 10
-4.405117034912109
 20
-8.326723098754882
 30
64.10894012451172
 10
-4.405117034912109
 20
-28.11731719970703
 30
64.10894012451172
 10
-22.99446105957031
 20
-28.11731338500976
 30
63.24676895141601
 10
-22.99446105957031
 20
-28.11731338500976
 30
64.10894012451172
 10
-22.99446105957031
 20
-8.326722145080566
 30
64.10894012451172
 10
-22.99446105957031
 20
-8.326722145080566
 30
63.24676895141601
 10
-4.405117034912109
 20
-28.1173152923584
 30
77.64221954345703
 10
-4.405117034912109
 20
-8.326724052429199
 30
77.64221954345703
 10
-4.405117034912109
 20
-8.326724052429199
 30
78.50439453125
 10
-4.405117034912109
 20
-28.1173152923584
 30
78.50439453125
 10
-22.99446105957031
 20
-28.11731338500976
 30
77.64221954345703
 10
-22.99446105957031
 20
-28.11731338500976
 30
78.50439453125
 10
-22.99446105957031
 20
-8.326723098754882
 30
78.50439453125
 10
-22.99446105957031
 20
-8.326723098754882
 30
77.64221954345703
 10
-4.398208618164062
 20
-28.1173152923584
 30
32.82998275756836
 10
-4.398208618164062
 20
-8.326725006103515
 30
32.82998275756836
 10
-4.398208618164062
 20
-8.326724052429199
 30
33.69215774536133
 10
-4.398208618164062
 20
-28.11731338500976
 30
33.69215774536133
 10
-22.987548828125
 20
-28.11731338500976
 30
32.82998275756836
 10
-22.987548828125
 20
-28.1173095703125
 30
33.69215774536133
 10
-22.987548828125
 20
-8.326724052429199
 30
33.69215774536133
 10
-22.987548828125
 20
-8.326725006103515
 30
32.82998275756836
 10
-4.405117034912109
 20
-28.11731338500976
 30
3.10682201385498
 10
-4.405117034912109
 20
-8.326723098754882
 30
3.106821537017822
 10
-4.405117034912109
 20
-8.326723098754882
 30
3.968995094299316
 10
-4.405117034912109
 20
-28.11731338500976
 30
3.968995571136474
 10
-22.99446105957031
 20
-28.11731338500976
 30
3.10682201385498
 10
-22.99446105957031
 20
-28.11731338500976
 30
3.968995571136474
 10
-22.99446105957031
 20
-8.326722145080566
 30
3.968995094299316
 10
-22.99446105957031
 20
-8.326722145080566
 30
3.106821537017822
 93
      792
 90
        4
 90
        0
 90
        2
 90
        3
 90
        1
 90
        4
 90
        4
 90
        5
 90
        7
 90
        6
 90
        4
 90
        0
 90
        1
 90
        5
 90
        4
 90
        4
 90
        1
 90
        3
 90
        7
 90
        5
 90
        4
 90
        3
 90
        2
 90
        6
 90
        7
 90
        4
 90
        2
 90
        0
 90
        4
 90
        6
 90
        4
 90
        8
 90
        9
 90
       10
 90
       11
 90
        4
 90
       12
 90
       13
 90
       14
 90
       15
 90
        4
 90
        8
 90
       11
 90
       13
 90
       12
 90
        4
 90
       11
 90
       10
 90
       14
 90
       13
 90
        4
 90
       10
 90
        9
 90
       15
 90
       14
 90
        4
 90
        9
 90
        8
 90
       12
 90
       15
 90
        4
 90
       16
 90
       17
 90
       18
 90
       19
 90
        4
 90
       20
 90
       21
 90
       22
 90
       23
 90
        4
 90
       16
 90
       19
 90
       21
 90
       20
 90
        4
 90
       19
 90
       18
 90
       22
 90
       21
 90
        4
 90
       18
 90
       17
 90
       23
 90
       22
 90
        4
 90
       17
 90
       16
 90
       20
 90
       23
 90
        4
 90
       24
 90
       25
 90
       26
 90
       27
 90
        4
 90
       28
 90
       29
 90
       30
 90
       31
 90
        4
 90
       24
 90
       27
 90
       29
 90
       28
 90
        4
 90
       27
 90
       26
 90
       30
 90
       29
 90
        4
 90
       26
 90
       25
 90
       31
 90
       30
 90
        4
 90
       25
 90
       24
 90
       28
 90
       31
 90
        4
 90
       32
 90
       33
 90
       34
 90
       35
 90
        4
 90
       36
 90
       37
 90
       38
 90
       39
 90
        4
 90
       32
 90
       35
 90
       37
 90
       36
 90
        4
 90
       35
 90
       34
 90
       38
 90
       37
 90
        4
 90
       34
 90
       33
 90
       39
 90
       38
 90
        4
 90
       33
 90
       32
 90
       36
 90
       39
 90
        4
 90
       40
 90
      124
 90
       83
 90
      128
 90
        4
 90
       42
 90
      126
 90
      109
 90
      130
 90
        4
 90
       41
 90
      122
 90
       81
 90
      129
 90
        4
 90
       44
 90
      123
 90
       82
 90
      131
 90
        4
 90
       43
 90
       45
 90
       86
 90
       84
 90
        4
 90
       45
 90
       46
 90
       87
 90
       86
 90
        4
 90
       46
 90
       47
 90
       88
 90
       87
 90
        4
 90
       47
 90
       48
 90
       89
 90
       88
 90
        4
 90
       48
 90
       49
 90
       90
 90
       89
 90
        4
 90
       49
 90
       50
 90
       91
 90
       90
 90
        4
 90
       50
 90
       51
 90
       92
 90
       91
 90
        4
 90
       51
 90
       52
 90
       93
 90
       92
 90
        4
 90
       52
 90
       53
 90
       94
 90
       93
 90
        4
 90
       53
 90
      125
 90
       85
 90
       94
 90
        4
 90
       54
 90
       43
 90
       84
 90
       95
 90
        4
 90
       55
 90
       54
 90
       95
 90
       96
 90
        4
 90
       56
 90
       55
 90
       96
 90
       97
 90
        4
 90
       57
 90
       56
 90
       97
 90
       98
 90
        4
 90
       58
 90
       57
 90
       98
 90
       99
 90
        4
 90
       59
 90
       58
 90
       99
 90
      100
 90
        4
 90
       60
 90
       59
 90
      100
 90
      101
 90
        4
 90
       61
 90
       60
 90
      101
 90
      102
 90
        4
 90
       62
 90
       61
 90
      102
 90
      103
 90
        4
 90
       63
 90
       62
 90
      103
 90
      104
 90
        4
 90
       64
 90
       63
 90
      104
 90
      105
 90
        4
 90
       65
 90
       64
 90
      105
 90
      106
 90
        4
 90
       66
 90
       65
 90
      106
 90
      107
 90
        4
 90
       67
 90
       66
 90
      107
 90
      108
 90
        4
 90
       69
 90
       67
 90
      108
 90
      110
 90
        4
 90
       68
 90
      127
 90
      121
 90
      132
 90
        4
 90
       70
 90
       69
 90
      110
 90
      111
 90
        4
 90
       71
 90
       70
 90
      111
 90
      112
 90
        4
 90
       72
 90
       71
 90
      112
 90
      113
 90
        4
 90
       73
 90
       72
 90
      113
 90
      114
 90
        4
 90
       74
 90
       73
 90
      114
 90
      115
 90
        4
 90
       75
 90
       74
 90
      115
 90
      116
 90
        4
 90
       76
 90
       75
 90
      116
 90
      117
 90
        4
 90
       77
 90
       76
 90
      117
 90
      118
 90
        4
 90
       78
 90
       77
 90
      118
 90
      119
 90
        4
 90
       79
 90
       78
 90
      119
 90
      120
 90
        4
 90
       80
 90
       79
 90
      120
 90
      133
 90
        4
 90
      122
 90
       40
 90
      128
 90
       81
 90
        4
 90
      123
 90
       41
 90
      129
 90
       82
 90
        4
 90
      124
 90
       42
 90
      130
 90
       83
 90
        4
 90
      125
 90
       44
 90
      131
 90
       85
 90
        4
 90
      126
 90
       68
 90
      132
 90
      109
 90
        4
 90
      127
 90
       80
 90
      133
 90
      121
 90
        4
 90
      134
 90
      159
 90
      186
 90
      161
 90
        4
 90
      136
 90
      135
 90
      162
 90
      163
 90
        4
 90
      135
 90
      134
 90
      161
 90
      162
 90
        4
 90
      137
 90
      136
 90
      163
 90
      164
 90
        4
 90
      138
 90
      137
 90
      164
 90
      165
 90
        4
 90
      139
 90
      138
 90
      165
 90
      166
 90
        4
 90
      140
 90
      139
 90
      166
 90
      167
 90
        4
 90
      141
 90
      140
 90
      167
 90
      168
 90
        4
 90
      142
 90
      141
 90
      168
 90
      169
 90
        4
 90
      143
 90
      142
 90
      169
 90
      170
 90
        4
 90
      144
 90
      143
 90
      170
 90
      171
 90
        4
 90
      145
 90
      144
 90
      171
 90
      172
 90
        4
 90
      146
 90
      145
 90
      172
 90
      173
 90
        4
 90
      147
 90
      146
 90
      173
 90
      174
 90
        4
 90
      148
 90
      147
 90
      174
 90
      175
 90
        4
 90
      149
 90
      148
 90
      175
 90
      176
 90
        4
 90
      150
 90
      149
 90
      176
 90
      177
 90
        4
 90
      151
 90
      150
 90
      177
 90
      178
 90
        4
 90
      152
 90
      151
 90
      178
 90
      179
 90
        4
 90
      153
 90
      152
 90
      179
 90
      180
 90
        4
 90
      154
 90
      153
 90
      180
 90
      181
 90
        4
 90
      155
 90
      154
 90
      181
 90
      182
 90
        4
 90
      156
 90
      155
 90
      182
 90
      183
 90
        4
 90
      157
 90
      156
 90
      183
 90
      184
 90
        4
 90
      158
 90
      157
 90
      184
 90
      185
 90
        4
 90
      160
 90
      158
 90
      185
 90
      187
 90
        4
 90
      159
 90
      160
 90
      187
 90
      186
 90
       27
 90
      134
 90
      135
 90
      136
 90
      137
 90
      138
 90
      139
 90
      140
 90
      141
 90
      142
 90
      143
 90
      144
 90
      145
 90
      146
 90
      147
 90
      148
 90
      149
 90
      150
 90
      151
 90
      152
 90
      153
 90
      154
 90
      155
 90
      156
 90
      157
 90
      158
 90
      160
 90
      159
 90
       27
 90
      186
 90
      187
 90
      185
 90
      184
 90
      183
 90
      182
 90
      181
 90
      180
 90
      179
 90
      178
 90
      177
 90
      176
 90
      175
 90
      174
 90
      173
 90
      172
 90
      171
 90
      170
 90
      169
 90
      168
 90
      167
 90
      166
 90
      165
 90
      164
 90
      163
 90
      162
 90
      161
 90
        4
 90
      188
 90
      189
 90
      190
 90
      191
 90
        4
 90
      192
 90
      193
 90
      194
 90
      195
 90
        4
 90
      188
 90
      191
 90
      193
 90
      192
 90
        4
 90
      191
 90
      190
 90
      194
 90
      193
 90
        4
 90
      190
 90
      189
 90
      195
 90
      194
 90
        4
 90
      189
 90
      188
 90
      192
 90
      195
 90
        4
 90
      196
 90
      197
 90
      198
 90
      199
 90
        4
 90
      200
 90
      201
 90
      202
 90
      203
 90
        4
 90
      196
 90
      199
 90
      201
 90
      200
 90
        4
 90
      199
 90
      198
 90
      202
 90
      201
 90
        4
 90
      198
 90
      197
 90
      203
 90
      202
 90
        4
 90
      197
 90
      196
 90
      200
 90
      203
 90
        4
 90
      204
 90
      205
 90
      206
 90
      207
 90
        4
 90
      208
 90
      209
 90
      210
 90
      211
 90
        4
 90
      204
 90
      207
 90
      209
 90
      208
 90
        4
 90
      207
 90
      206
 90
      210
 90
      209
 90
        4
 90
      206
 90
      205
 90
      211
 90
      210
 90
        4
 90
      205
 90
      204
 90
      208
 90
      211
 90
        4
 90
      212
 90
      213
 90
      214
 90
      215
 90
        4
 90
      216
 90
      217
 90
      218
 90
      219
 90
        4
 90
      212
 90
      215
 90
      217
 90
      216
 90
        4
 90
      215
 90
      214
 90
      218
 90
      217
 90
        4
 90
      214
 90
      213
 90
      219
 90
      218
 90
        4
 90
      213
 90
      212
 90
      216
 90
      219
 90
       47
 90
       40
 90
      122
 90
       41
 90
      123
 90
       44
 90
      125
 90
       53
 90
       52
 90
       51
 90
       50
 90
       49
 90
       48
 90
       47
 90
       46
 90
       45
 90
       43
 90
       54
 90
       55
 90
       56
 90
       57
 90
       58
 90
       59
 90
       60
 90
       61
 90
       62
 90
       63
 90
       64
 90
       65
 90
       66
 90
       67
 90
       69
 90
       70
 90
       71
 90
       72
 90
       73
 90
       74
 90
       75
 90
       76
 90
       77
 90
       78
 90
       79
 90
       80
 90
      127
 90
       68
 90
      126
 90
       42
 90
      124
 90
       47
 90
       83
 90
      130
 90
      109
 90
      132
 90
      121
 90
      133
 90
      120
 90
      119
 90
      118
 90
      117
 90
      116
 90
      115
 90
      114
 90
      113
 90
      112
 90
      111
 90
      110
 90
      108
 90
      107
 90
      106
 90
      105
 90
      104
 90
      103
 90
      102
 90
      101
 90
      100
 90
       99
 90
       98
 90
       97
 90
       96
 90
       95
 90
       84
 90
       86
 90
       87
 90
       88
 90
       89
 90
       90
 90
       91
 90
       92
 90
       93
 90
       94
 90
       85
 90
      131
 90
       82
 90
      129
 90
       81
 90
      128
 94
      330
 90
        0
 90
        2
 90
        2
 90
        3
 90
        1
 90
        3
 90
        0
 90
        1
 90
        4
 90
        5
 90
        5
 90
        7
 90
        6
 90
        7
 90
        4
 90
        6
 90
        1
 90
        5
 90
        0
 90
        4
 90
        3
 90
        7
 90
        2
 90
        6
 90
        8
 90
        9
 90
        9
 90
       10
 90
       10
 90
       11
 90
        8
 90
       11
 90
       12
 90
       13
 90
       13
 90
       14
 90
       14
 90
       15
 90
       12
 90
       15
 90
       11
 90
       13
 90
        8
 90
       12
 90
       10
 90
       14
 90
        9
 90
       15
 90
       16
 90
       17
 90
       17
 90
       18
 90
       18
 90
       19
 90
       16
 90
       19
 90
       20
 90
       21
 90
       21
 90
       22
 90
       22
 90
       23
 90
       20
 90
       23
 90
       19
 90
       21
 90
       16
 90
       20
 90
       18
 90
       22
 90
       17
 90
       23
 90
       24
 90
       25
 90
       25
 90
       26
 90
       26
 90
       27
 90
       24
 90
       27
 90
       28
 90
       29
 90
       29
 90
       30
 90
       30
 90
       31
 90
       28
 90
       31
 90
       27
 90
       29
 90
       24
 90
       28
 90
       26
 90
       30
 90
       25
 90
       31
 90
       32
 90
       33
 90
       33
 90
       34
 90
       34
 90
       35
 90
       32
 90
       35
 90
       36
 90
       37
 90
       37
 90
       38
 90
       38
 90
       39
 90
       36
 90
       39
 90
       35
 90
       37
 90
       32
 90
       36
 90
       34
 90
       38
 90
       33
 90
       39
 90
       40
 90
      124
 90
       83
 90
      124
 90
       83
 90
      128
 90
       40
 90
      128
 90
       42
 90
      126
 90
      109
 90
      126
 90
      109
 90
      130
 90
       42
 90
      130
 90
       41
 90
      122
 90
       81
 90
      122
 90
       81
 90
      129
 90
       41
 90
      129
 90
       44
 90
      123
 90
       82
 90
      123
 90
       82
 90
      131
 90
       44
 90
      131
 90
       43
 90
       45
 90
       45
 90
       86
 90
       84
 90
       86
 90
       43
 90
       84
 90
       45
 90
       46
 90
       46
 90
       87
 90
       86
 90
       87
 90
       46
 90
       47
 90
       47
 90
       88
 90
       87
 90
       88
 90
       47
 90
       48
 90
       48
 90
       89
 90
       88
 90
       89
 90
       48
 90
       49
 90
       49
 90
       90
 90
       89
 90
       90
 90
       49
 90
       50
 90
       50
 90
       91
 90
       90
 90
       91
 90
       50
 90
       51
 90
       51
 90
       92
 90
       91
 90
       92
 90
       51
 90
       52
 90
       52
 90
       93
 90
       92
 90
       93
 90
       52
 90
       53
 90
       53
 90
       94
 90
       93
 90
       94
 90
       53
 90
      125
 90
       85
 90
      125
 90
       85
 90
       94
 90
       43
 90
       54
 90
       84
 90
       95
 90
       54
 90
       95
 90
       54
 90
       55
 90
       95
 90
       96
 90
       55
 90
       96
 90
       55
 90
       56
 90
       96
 90
       97
 90
       56
 90
       97
 90
       56
 90
       57
 90
       97
 90
       98
 90
       57
 90
       98
 90
       57
 90
       58
 90
       98
 90
       99
 90
       58
 90
       99
 90
       58
 90
       59
 90
       99
 90
      100
 90
       59
 90
      100
 90
       59
 90
       60
 90
      100
 90
      101
 90
       60
 90
      101
 90
       60
 90
       61
 90
      101
 90
      102
 90
       61
 90
      102
 90
       61
 90
       62
 90
      102
 90
      103
 90
       62
 90
      103
 90
       62
 90
       63
 90
      103
 90
      104
 90
       63
 90
      104
 90
       63
 90
       64
 90
      104
 90
      105
 90
       64
 90
      105
 90
       64
 90
       65
 90
      105
 90
      106
 90
       65
 90
      106
 90
       65
 90
       66
 90
      106
 90
      107
 90
       66
 90
      107
 90
       66
 90
       67
 90
      107
 90
      108
 90
       67
 90
      108
 90
       67
 90
       69
 90
      108
 90
      110
 90
       69
 90
      110
 90
       68
 90
      127
 90
      121
 90
      127
 90
      121
 90
      132
 90
       68
 90
      132
 90
       69
 90
       70
 90
      110
 90
      111
 90
       70
 90
      111
 90
       70
 90
       71
 90
      111
 90
      112
 90
       71
 90
      112
 90
       71
 90
       72
 90
      112
 90
      113
 90
       72
 90
      113
 90
       72
 90
       73
 90
      113
 90
      114
 90
       73
 90
      114
 90
       73
 90
       74
 90
      114
 90
      115
 90
       74
 90
      115
 90
       74
 90
       75
 90
      115
 90
      116
 90
       75
 90
      116
 90
       75
 90
       76
 90
      116
 90
      117
 90
       76
 90
      117
 90
       76
 90
       77
 90
      117
 90
      118
 90
       77
 90
      118
 90
       77
 90
       78
 90
      118
 90
      119
 90
       78
 90
      119
 90
       78
 90
       79
 90
      119
 90
      120
 90
       79
 90
      120
 90
       79
 90
       80
 90
      120
 90
      133
 90
       80
 90
      133
 90
       40
 90
      122
 90
       81
 90
      128
 90
       41
 90
      123
 90
       82
 90
      129
 90
       42
 90
      124
 90
       83
 90
      130
 90
       44
 90
      125
 90
       85
 90
      131
 90
       68
 90
      126
 90
      109
 90
      132
 90
       80
 90
      127
 90
      121
 90
      133
 90
      134
 90
      159
 90
      159
 90
      186
 90
      161
 90
      186
 90
      134
 90
      161
 90
      135
 90
      136
 90
      135
 90
      162
 90
      162
 90
      163
 90
      136
 90
      163
 90
      134
 90
      135
 90
      161
 90
      162
 90
      136
 90
      137
 90
      163
 90
      164
 90
      137
 90
      164
 90
      137
 90
      138
 90
      164
 90
      165
 90
      138
 90
      165
 90
      138
 90
      139
 90
      165
 90
      166
 90
      139
 90
      166
 90
      139
 90
      140
 90
      166
 90
      167
 90
      140
 90
      167
 90
      140
 90
      141
 90
      167
 90
      168
 90
      141
 90
      168
 90
      141
 90
      142
 90
      168
 90
      169
 90
      142
 90
      169
 90
      142
 90
      143
 90
      169
 90
      170
 90
      143
 90
      170
 90
      143
 90
      144
 90
      170
 90
      171
 90
      144
 90
      171
 90
      144
 90
      145
 90
      171
 90
      172
 90
      145
 90
      172
 90
      145
 90
      146
 90
      172
 90
      173
 90
      146
 90
      173
 90
      146
 90
      147
 90
      173
 90
      174
 90
      147
 90
      174
 90
      147
 90
      148
 90
      174
 90
      175
 90
      148
 90
      175
 90
      148
 90
      149
 90
      175
 90
      176
 90
      149
 90
      176
 90
      149
 90
      150
 90
      176
 90
      177
 90
      150
 90
      177
 90
      150
 90
      151
 90
      177
 90
      178
 90
      151
 90
      178
 90
      151
 90
      152
 90
      178
 90
      179
 90
      152
 90
      179
 90
      152
 90
      153
 90
      179
 90
      180
 90
      153
 90
      180
 90
      153
 90
      154
 90
      180
 90
      181
 90
      154
 90
      181
 90
      154
 90
      155
 90
      181
 90
      182
 90
      155
 90
      182
 90
      155
 90
      156
 90
      182
 90
      183
 90
      156
 90
      183
 90
      156
 90
      157
 90
      183
 90
      184
 90
      157
 90
      184
 90
      157
 90
      158
 90
      184
 90
      185
 90
      158
 90
      185
 90
      158
 90
      160
 90
      185
 90
      187
 90
      160
 90
      187
 90
      159
 90
      160
 90
      186
 90
      187
 90
      188
 90
      189
 90
      189
 90
      190
 90
      190
 90
      191
 90
      188
 90
      191
 90
      192
 90
      193
 90
      193
 90
      194
 90
      194
 90
      195
 90
      192
 90
      195
 90
      191
 90
      193
 90
      188
 90
      192
 90
      190
 90
      194
 90
      189
 90
      195
 90
      196
 90
      197
 90
      197
 90
      198
 90
      198
 90
      199
 90
      196
 90
      199
 90
      200
 90
      201
 90
      201
 90
      202
 90
      202
 90
      203
 90
      200
 90
      203
 90
      199
 90
      201
 90
      196
 90
      200
 90
      198
 90
      202
 90
      197
 90
      203
 90
      204
 90
      205
 90
      205
 90
      206
 90
      206
 90
      207
 90
      204
 90
      207
 90
      208
 90
      209
 90
      209
 90
      210
 90
      210
 90
      211
 90
      208
 90
      211
 90
      207
 90
      209
 90
      204
 90
      208
 90
      206
 90
      210
 90
      205
 90
      211
 90
      212
 90
      213
 90
      213
 90
      214
 90
      214
 90
      215
 90
      212
 90
      215
 90
      216
 90
      217
 90
      217
 90
      218
 90
      218
 90
      219
 90
      216
 90
      219
 90
      215
 90
      217
 90
      212
 90
      216
 90
      214
 90
      218
 90
      213
 90
      219
 95
      330
140
0.0
140
0.0
140
0.0
140
0.0
140
0.0
140
0.0
140
0.0
140
0.0
140
0.0
140
0.0
140
0.0
140
0.0
140
0.0
140
0.0
140
0.0
140
0.0
140
0.0
140
0.0
140
0.0
140
0.0
140
0.0
140
0.0
140
0.0
140
0.0
140
0.0
140
0.0
140
0.0
140
0.0
140
0.0
140
0.0
140
0.0
140
0.0
140
0.0
140
0.0
140
0.0
140
0.0
140
0.0
140
0.0
140
0.0
140
0.0
140
0.0
140
0.0
140
0.0
140
0.0
140
0.0
140
0.0
140
0.0
140
0.0
140
0.0
140
0.0
140
0.0
140
0.0
140
0.0
140
0.0
140
0.0
140
0.0
140
0.0
140
0.0
140
0.0
140
0.0
140
0.0
140
0.0
140
0.0
140
0.0
140
0.0
140
0.0
140
0.0
140
0.0
140
0.0
140
0.0
140
0.0
140
0.0
140
0.0
140
0.0
140
0.0
140
0.0
140
0.0
140
0.0
140
0.0
140
0.0
140
0.0
140
0.0
140
0.0
140
0.0
140
0.0
140
0.0
140
0.0
140
0.0
140
0.0
140
0.0
140
0.0
140
0.0
140
0.0
140
0.0
140
0.0
140
0.0
140
0.0
140
0.0
140
0.0
140
0.0
140
0.0
140
0.0
140
0.0
140
0.0
140
0.0
140
0.0
140
0.0
140
0.0
140
0.0
140
0.0
140
0.0
140
0.0
140
0.0
140
0.0
140
0.0
140
0.0
140
0.0
140
0.0
140
0.0
140
0.0
140
0.0
140
0.0
140
0.0
140
0.0
140
0.0
140
0.0
140
0.0
140
0.0
140
0.0
140
0.0
140
0.0
140
0.0
140
0.0
140
0.0
140
0.0
140
0.0
140
0.0
140
0.0
140
0.0
140
0.0
140
0.0
140
0.0
140
0.0
140
0.0
140
0.0
140
0.0
140
0.0
140
0.0
140
0.0
140
0.0
140
0.0
140
0.0
140
0.0
140
0.0
140
0.0
140
0.0
140
0.0
140
0.0
140
0.0
140
0.0
140
0.0
140
0.0
140
0.0
140
0.0
140
0.0
140
0.0
140
0.0
140
0.0
140
0.0
140
0.0
140
0.0
140
0.0
140
0.0
140
0.0
140
0.0
140
0.0
140
0.0
140
0.0
140
0.0
140
0.0
140
0.0
140
0.0
140
0.0
140
0.0
140
0.0
140
0.0
140
0.0
140
0.0
140
0.0
140
0.0
140
0.0
140
0.0
140
0.0
140
0.0
140
0.0
140
0.0
140
0.0
140
0.0
140
0.0
140
0.0
140
0.0
140
0.0
140
0.0
140
0.0
140
0.0
140
0.0
140
0.0
140
0.0
140
0.0
140
0.0
140
0.0
140
0.0
140
0.0
140
0.0
140
0.0
140
0.0
140
0.0
140
0.0
140
0.0
140
0.0
140
0.0
140
0.0
140
0.0
140
0.0
140
0.0
140
0.0
140
0.0
140
0.0
140
0.0
140
0.0
140
0.0
140
0.0
140
0.0
140
0.0
140
0.0
140
0.0
140
0.0
140
0.0
140
0.0
140
0.0
140
0.0
140
0.0
140
0.0
140
0.0
140
0.0
140
0.0
140
0.0
140
0.0
140
0.0
140
0.0
140
0.0
140
0.0
140
0.0
140
0.0
140
0.0
140
0.0
140
0.0
140
0.0
140
0.0
140
0.0
140
0.0
140
0.0
140
0.0
140
0.0
140
0.0
140
0.0
140
0.0
140
0.0
140
0.0
140
0.0
140
0.0
140
0.0
140
0.0
140
0.0
140
0.0
140
0.0
140
0.0
140
0.0
140
0.0
140
0.0
140
0.0
140
0.0
140
0.0
140
0.0
140
0.0
140
0.0
140
0.0
140
0.0
140
0.0
140
0.0
140
0.0
140
0.0
140
0.0
140
0.0
140
0.0
140
0.0
140
0.0
140
0.0
140
0.0
140
0.0
140
0.0
140
0.0
140
0.0
140
0.0
140
0.0
140
0.0
140
0.0
140
0.0
140
0.0
140
0.0
140
0.0
140
0.0
140
0.0
140
0.0
140
0.0
140
0.0
140
0.0
140
0.0
140
0.0
140
0.0
140
0.0
140
0.0
140
0.0
140
0.0
140
0.0
140
0.0
140
0.0
140
0.0
140
0.0
140
0.0
 90
        0
  0
MESH
  5
FA
330
1F
100
AcDbEntity
  8
0
 62
   221
420
 15050455
160
               872
310
68030000180000000C00000013000000020000003C000000060000000200000000000000C49711C000000060E3D539C0000000A09EF23E4000000000C49711C00000002055EB31C0000000A09EF23E400C000000130000000A0000003C000000060000000200000000000000C49711C00000002055EB31C0000000A09EF23E
310
4000000000C49711C00000002055EB31C000000020E22940400C00000013000000120000003C000000060000000200000000000000C49711C00000002055EB31C000000020E229404000000000C49711C000000060E3D539C000000020E22940400C000000130000001A0000003C000000060000000200000000000000C497
310
11C000000060E3D539C0000000A09EF23E4000000000C49711C000000060E3D539C000000020E22940400C00000013000000220000003C000000060000000200000000000000D0FC36C000000060E3D539C0000000A09EF23E4000000000D0FC36C000000040E3D539C000000020E22940400C000000130000002A0000003C
310
000000060000000200000000000000D0FC36C000000040E3D539C000000020E229404000000000D0FC36C00000002055EB31C000000020E22940400C00000013000000320000003C000000060000000200000000000000D0FC36C00000002055EB31C000000020E229404000000000D0FC36C00000002055EB31C0000000A0
310
9EF23E400C000000130000003A0000003C000000060000000200000000000000D0FC36C000000060E3D539C0000000A09EF23E4000000000D0FC36C00000002055EB31C0000000A09EF23E400C00000013000000420000003C000000060000000200000000000000C49711C000000060E3D539C000000020E2294040000000
310
00D0FC36C000000040E3D539C000000020E22940400C000000130000004A0000003C000000060000000200000000000000C49711C000000060E3D539C0000000A09EF23E4000000000D0FC36C000000060E3D539C0000000A09EF23E400C00000013000000520000003C000000060000000200000000000000C49711C00000
310
002055EB31C000000020E229404000000000D0FC36C00000002055EB31C000000020E22940400C000000130000005A0000003C000000060000000200000000000000C49711C00000002055EB31C0000000A09EF23E4000000000D0FC36C00000002055EB31C0000000A09EF23E40
100
AcDbSubDMesh
 71
     2
 72
     0
 91
        0
 92
        8
 10
-4.398208618164062
 20
-25.83550071716309
 30
30.94773292541504
 10
-4.398208618164062
 20
-17.91926765441894
 30
30.94773292541504
 10
-4.398208618164062
 20
-17.91926765441894
 30
32.32721328735352
 10
-4.398208618164062
 20
-25.83550071716309
 30
32.32721328735352
 10
-22.987548828125
 20
-25.83550071716309
 30
30.94773292541504
 10
-22.987548828125
 20
-25.83549880981446
 30
32.32721328735352
 10
-22.987548828125
 20
-17.91926765441894
 30
32.32721328735352
 10
-22.987548828125
 20
-17.91926765441894
 30
30.94773292541504
 93
       30
 90
        4
 90
        0
 90
        1
 90
        2
 90
        3
 90
        4
 90
        4
 90
        5
 90
        6
 90
        7
 90
        4
 90
        0
 90
        3
 90
        5
 90
        4
 90
        4
 90
        3
 90
        2
 90
        6
 90
        5
 90
        4
 90
        2
 90
        1
 90
        7
 90
        6
 90
        4
 90
        1
 90
        0
 90
        4
 90
        7
 94
       12
 90
        0
 90
        1
 90
        1
 90
        2
 90
        2
 90
        3
 90
        0
 90
        3
 90
        4
 90
        5
 90
        5
 90
        6
 90
        6
 90
        7
 90
        4
 90
        7
 90
        3
 90
        5
 90
        0
 90
        4
 90
        2
 90
        6
 90
        1
 90
        7
 95
       12
140
0.0
140
0.0
140
0.0
140
0.0
140
0.0
140
0.0
140
0.0
140
0.0
140
0.0
140
0.0
140
0.0
140
0.0
 90
        0
  0
ENDSEC
  0
SECTION
  2
OBJECTS
  0
DICTIONARY
  5
C
330
0
100
AcDbDictionary
281
     1
  3
ACAD_COLOR
350
DC
  3
ACAD_DETAILVIEWSTYLE
350
F5
  3
ACAD_GROUP
350
D
  3
ACAD_LAYOUT
350
1A
  3
ACAD_MATERIAL
350
AA
  3
ACAD_MLEADERSTYLE
350
F1
  3
ACAD_MLINESTYLE
350
17
  3
ACAD_PLOTSETTINGS
350
19
  3
ACAD_PLOTSTYLENAME
350
E
  3
ACAD_SCALELIST
350
DF
  3
ACAD_SECTIONVIEWSTYLE
350
F3
  3
ACAD_TABLESTYLE
350
DD
  3
ACAD_VISUALSTYLE
350
C3
  3
ACDB_RECOMPOSE_DATA
350
107
  3
AcDbVariableDictionary
350
FB
  0
DICTIONARY
  5
DC
102
{ACAD_REACTORS
330
C
102
}
330
C
100
AcDbDictionary
281
     1
  0
DICTIONARY
  5
F5
102
{ACAD_REACTORS
330
C
102
}
330
C
100
AcDbDictionary
281
     1
  3
Imperial24
350
F6
  0
DICTIONARY
  5
D
102
{ACAD_REACTORS
330
C
102
}
330
C
100
AcDbDictionary
281
     1
  0
DICTIONARY
  5
1A
102
{ACAD_REACTORS
330
C
102
}
330
C
100
AcDbDictionary
281
     1
  3
Layout1
350
1E
  3
Layout2
350
26
  3
Model
350
22
  0
DICTIONARY
  5
AA
102
{ACAD_REACTORS
330
C
102
}
330
C
100
AcDbDictionary
281
     1
  3
ByBlock
350
B3
  3
ByLayer
350
AB
  3
Global
350
BB
  0
DICTIONARY
  5
F1
102
{ACAD_REACTORS
330
C
102
}
330
C
100
AcDbDictionary
281
     1
  3
Standard
350
F2
  0
DICTIONARY
  5
17
102
{ACAD_REACTORS
330
C
102
}
330
C
100
AcDbDictionary
281
     1
  3
Standard
350
18
  0
DICTIONARY
  5
19
102
{ACAD_REACTORS
330
C
102
}
330
C
100
AcDbDictionary
281
     1
  0
ACDBDICTIONARYWDFLT
  5
E
102
{ACAD_REACTORS
330
C
102
}
330
C
100
AcDbDictionary
281
     1
  3
ByLayer
350
2D
  3
Normal
350
F
100
AcDbDictionaryWithDefault
340
F
  0
DICTIONARY
  5
DF
102
{ACAD_REACTORS
330
C
102
}
330
C
100
AcDbDictionary
281
     1
  3
A0
350
E0
  3
A1
350
E1
  3
A2
350
E2
  3
A3
350
E3
  3
A4
350
E4
  3
A5
350
E5
  3
A6
350
E6
  3
A7
350
E7
  3
A8
350
E8
  3
A9
350
E9
  3
B0
350
EA
  3
B1
350
EB
  3
B2
350
EC
  3
B3
350
ED
  3
B4
350
EE
  3
B5
350
EF
  3
B6
350
F0
  0
DICTIONARY
  5
F3
102
{ACAD_REACTORS
330
C
102
}
330
C
100
AcDbDictionary
281
     1
  3
Imperial24
350
F4
  0
DICTIONARY
  5
DD
102
{ACAD_REACTORS
330
C
102
}
330
C
100
AcDbDictionary
281
     1
  3
Standard
350
DE
  0
DICTIONARY
  5
C3
102
{ACAD_REACTORS
330
C
102
}
330
C
100
AcDbDictionary
281
     1
  3
2dWireframe
350
C9
  3
Basic
350
C8
  3
Brighten
350
CF
  3
ColorChange
350
D3
  3
Conceptual
350
CC
  3
Dim
350
CE
  3
EdgeColorOff
350
DB
  3
Facepattern
350
D2
  3
Flat
350
C4
  3
FlatWithEdges
350
C5
  3
Gouraud
350
C6
  3
GouraudWithEdges
350
C7
  3
Hidden
350
CB
  3
JitterOff
350
D9
  3
Linepattern
350
D1
  3
OverhangOff
350
DA
  3
Realistic
350
CD
  3
Shaded
350
D8
  3
Shaded with edges
350
D7
  3
Shades of Gray
350
D4
  3
Sketchy
350
D5
  3
Thicken
350
D0
  3
Wireframe
350
CA
  3
X-Ray
350
D6
  0
XRECORD
  5
107
102
{ACAD_REACTORS
330
C
102
}
330
C
100
AcDbXrecord
280
     1
 90
        1
330
DE
  0
DICTIONARY
  5
FB
102
{ACAD_REACTORS
330
C
102
}
330
C
100
AcDbDictionary
281
     1
  3
CANNOSCALE
350
101
  3
CMLEADERSTYLE
350
FD
  3
CTABLESTYLE
350
FC
  3
CVIEWDETAILSTYLE
350
FE
  3
CVIEWSECTIONSTYLE
350
FF
  3
LAYEREVAL
350
103
  3
LAYERNOTIFY
350
104
  3
LIGHTINGUNITS
350
102
  3
MSLTSCALE
350
100
  0
ACDBDETAILVIEWSTYLE
  5
F6
102
{ACAD_XDICTIONARY
360
13C
102
}
102
{ACAD_REACTORS
330
F5
102
}
330
F5
100
AcDbModelDocViewStyle
 70
     0
  3
Imperial24
290
     0
100
AcDbDetailViewStyle
 70
     0
 71
     0
 90
        3
 71
     1
340
11
 62
   256
 40
0.24
340
0
 62
   256
 40
0.24
300

 40
0.36
280
     3
 71
     2
340
16
 90
       25
 62
   256
 71
     3
340
11
 62
   256
 40
0.24
 90
        1
 40
0.75
 90
        1
300
%<\AcVar ViewType \f "%tc1">% %<\AcVar ViewDetailId>%\PSCALE %<\AcVar ViewScale \f "%sn">%
 71
     4
340
16
 90
       25
 62
   256
340
16
 90
       25
 62
   256
280
     0
  0
LAYOUT
  5
1E
102
{ACAD_REACTORS
330
1A
102
}
330
1A
100
AcDbPlotSettings
  1

  2
\\KTXNTBDC\CASF2PN1
  4

  6

 40
0.0
 41
0.0
 42
0.0
 43
0.0
 44
0.0
 45
0.0
 46
0.0
 47
0.0
 48
0.0
 49
0.0
140
0.0
141
0.0
142
1.0
143
1.0
 70
   688
 72
     0
 73
     0
 74
     5
  7

 75
    16
147
1.0
 76
     0
 77
     2
 78
   300
148
0.0
149
0.0
100
AcDbLayout
  1
Layout1
 70
     1
 71
     1
 10
0.0
 20
0.0
 11
12.0
 21
9.0
 12
0.0
 22
0.0
 32
0.0
 14
1.000000000000000E+20
 24
1.000000000000000E+20
 34
1.000000000000000E+20
 15
-1.000000000000000E+20
 25
-1.000000000000000E+20
 35
-1.000000000000000E+20
146
0.0
 13
0.0
 23
0.0
 33
0.0
 16
1.0
 26
0.0
 36
0.0
 17
0.0
 27
1.0
 37
0.0
 76
     0
330
1B
  0
LAYOUT
  5
26
102
{ACAD_REACTORS
330
1A
102
}
330
1A
100
AcDbPlotSettings
  1

  2
\\KTXNTBDC\CASF2PN1
  4

  6

 40
0.0
 41
0.0
 42
0.0
 43
0.0
 44
0.0
 45
0.0
 46
0.0
 47
0.0
 48
0.0
 49
0.0
140
0.0
141
0.0
142
1.0
143
1.0
 70
   688
 72
     0
 73
     0
 74
     5
  7

 75
    16
147
1.0
 76
     0
 77
     2
 78
   300
148
0.0
149
0.0
100
AcDbLayout
  1
Layout2
 70
     1
 71
     2
 10
0.0
 20
0.0
 11
12.0
 21
9.0
 12
0.0
 22
0.0
 32
0.0
 14
0.0
 24
0.0
 34
0.0
 15
0.0
 25
0.0
 35
0.0
146
0.0
 13
0.0
 23
0.0
 33
0.0
 16
1.0
 26
0.0
 36
0.0
 17
0.0
 27
1.0
 37
0.0
 76
     0
330
23
  0
LAYOUT
  5
22
102
{ACAD_REACTORS
330
1A
102
}
330
1A
100
AcDbPlotSettings
  1

  2
\\KTXNTBDC\CASF2PN1
  4

  6

 40
0.0
 41
0.0
 42
0.0
 43
0.0
 44
0.0
 45
0.0
 46
0.0
 47
0.0
 48
0.0
 49
0.0
140
0.0
141
0.0
142
1.0
143
1.0
 70
  1712
 72
     0
 73
     0
 74
     0
  7

 75
     0
147
1.0
 76
     0
 77
     2
 78
   300
148
0.0
149
0.0
100
AcDbLayout
  1
Model
 70
     1
 71
     0
 10
0.0
 20
0.0
 11
12.0
 21
9.0
 12
0.0
 22
0.0
 32
0.0
 14
0.0
 24
0.0
 34
0.0
 15
0.0
 25
0.0
 35
0.0
146
0.0
 13
0.0
 23
0.0
 33
0.0
 16
1.0
 26
0.0
 36
0.0
 17
0.0
 27
1.0
 37
0.0
 76
     0
330
1F
  0
MATERIAL
  5
B3
102
{ACAD_XDICTIONARY
360
B4
102
}
102
{ACAD_REACTORS
330
AA
102
}
330
AA
100
AcDbMaterial
  1
ByBlock
 72
     0
 43
0.0208333333333333
 43
0.0
 43
0.0
 43
0.0
 43
0.0
 43
0.0208333333333333
 43
0.0
 43
0.0
 43
0.0
 43
0.0
 43
1.0
 43
0.0
 43
0.0
 43
0.0
 43
0.0
 43
1.0
 77
     0
 47
0.0208333333333333
 47
0.0
 47
0.0
 47
0.0
 47
0.0
 47
0.0208333333333333
 47
0.0
 47
0.0
 47
0.0
 47
0.0
 47
1.0
 47
0.0
 47
0.0
 47
0.0
 47
0.0
 47
1.0
171
     0
 49
0.0208333333333333
 49
0.0
 49
0.0
 49
0.0
 49
0.0
 49
0.0208333333333333
 49
0.0
 49
0.0
 49
0.0
 49
0.0
 49
1.0
 49
0.0
 49
0.0
 49
0.0
 49
0.0
 49
1.0
175
     0
142
0.0208333333333333
142
0.0
142
0.0
142
0.0
142
0.0
142
0.0208333333333333
142
0.0
142
0.0
142
0.0
142
0.0
142
1.0
142
0.0
142
0.0
142
0.0
142
0.0
142
1.0
179
     0
144
0.0208333333333333
144
0.0
144
0.0
144
0.0
144
0.0
144
0.0208333333333333
144
0.0
144
0.0
144
0.0
144
0.0
144
1.0
144
0.0
144
0.0
144
0.0
144
0.0
144
1.0
147
0.0208333333333333
147
0.0
147
0.0
147
0.0
147
0.0
147
0.0208333333333333
147
0.0
147
0.0
147
0.0
147
0.0
147
1.0
147
0.0
147
0.0
147
0.0
147
0.0
147
1.0
  0
MATERIAL
  5
AB
102
{ACAD_XDICTIONARY
360
AC
102
}
102
{ACAD_REACTORS
330
AA
102
}
330
AA
100
AcDbMaterial
  1
ByLayer
 72
     0
 43
0.0208333333333333
 43
0.0
 43
0.0
 43
0.0
 43
0.0
 43
0.0208333333333333
 43
0.0
 43
0.0
 43
0.0
 43
0.0
 43
1.0
 43
0.0
 43
0.0
 43
0.0
 43
0.0
 43
1.0
 77
     0
 47
0.0208333333333333
 47
0.0
 47
0.0
 47
0.0
 47
0.0
 47
0.0208333333333333
 47
0.0
 47
0.0
 47
0.0
 47
0.0
 47
1.0
 47
0.0
 47
0.0
 47
0.0
 47
0.0
 47
1.0
171
     0
 49
0.0208333333333333
 49
0.0
 49
0.0
 49
0.0
 49
0.0
 49
0.0208333333333333
 49
0.0
 49
0.0
 49
0.0
 49
0.0
 49
1.0
 49
0.0
 49
0.0
 49
0.0
 49
0.0
 49
1.0
175
     0
142
0.0208333333333333
142
0.0
142
0.0
142
0.0
142
0.0
142
0.0208333333333333
142
0.0
142
0.0
142
0.0
142
0.0
142
1.0
142
0.0
142
0.0
142
0.0
142
0.0
142
1.0
179
     0
144
0.0208333333333333
144
0.0
144
0.0
144
0.0
144
0.0
144
0.0208333333333333
144
0.0
144
0.0
144
0.0
144
0.0
144
1.0
144
0.0
144
0.0
144
0.0
144
0.0
144
1.0
147
0.0208333333333333
147
0.0
147
0.0
147
0.0
147
0.0
147
0.0208333333333333
147
0.0
147
0.0
147
0.0
147
0.0
147
1.0
147
0.0
147
0.0
147
0.0
147
0.0
147
1.0
  0
MATERIAL
  5
BB
102
{ACAD_XDICTIONARY
360
BC
102
}
102
{ACAD_REACTORS
330
AA
102
}
330
AA
100
AcDbMaterial
  1
Global
 72
     0
 43
0.0208333333333333
 43
0.0
 43
0.0
 43
0.0
 43
0.0
 43
0.0208333333333333
 43
0.0
 43
0.0
 43
0.0
 43
0.0
 43
1.0
 43
0.0
 43
0.0
 43
0.0
 43
0.0
 43
1.0
 77
     0
 47
0.0208333333333333
 47
0.0
 47
0.0
 47
0.0
 47
0.0
 47
0.0208333333333333
 47
0.0
 47
0.0
 47
0.0
 47
0.0
 47
1.0
 47
0.0
 47
0.0
 47
0.0
 47
0.0
 47
1.0
171
     0
 49
0.0208333333333333
 49
0.0
 49
0.0
 49
0.0
 49
0.0
 49
0.0208333333333333
 49
0.0
 49
0.0
 49
0.0
 49
0.0
 49
1.0
 49
0.0
 49
0.0
 49
0.0
 49
0.0
 49
1.0
175
     0
142
0.0208333333333333
142
0.0
142
0.0
142
0.0
142
0.0
142
0.0208333333333333
142
0.0
142
0.0
142
0.0
142
0.0
142
1.0
142
0.0
142
0.0
142
0.0
142
0.0
142
1.0
179
     0
144
0.0208333333333333
144
0.0
144
0.0
144
0.0
144
0.0
144
0.0208333333333333
144
0.0
144
0.0
144
0.0
144
0.0
144
1.0
144
0.0
144
0.0
144
0.0
144
0.0
144
1.0
147
0.0208333333333333
147
0.0
147
0.0
147
0.0
147
0.0
147
0.0208333333333333
147
0.0
147
0.0
147
0.0
147
0.0
147
1.0
147
0.0
147
0.0
147
0.0
147
0.0
147
1.0
  0
MLEADERSTYLE
  5
F2
102
{ACAD_XDICTIONARY
360
138
102
}
102
{ACAD_REACTORS
330
F1
102
}
330
F1
100
AcDbMLeaderStyle
179
     2
170
     2
171
     1
172
     0
 90
        2
 40
0.0
 41
0.0
173
     1
 91
-1056964608
340
14
 92
       -2
290
     1
 42
0.09
291
     1
 43
0.36
  3
Standard
 44
0.18
300

342
11
174
     1
178
     6
175
     1
176
     0
 93
-1056964608
 45
0.18
292
     0
297
     0
 46
0.18
 94
-1056964608
 47
1.0
 49
1.0
140
1.0
293
     1
141
0.0
294
     1
177
     0
142
1.0
295
     0
296
     0
143
0.125
271
     0
272
     9
273
     9
  0
MLINESTYLE
  5
18
102
{ACAD_REACTORS
330
17
102
}
330
17
100
AcDbMlineStyle
  2
STANDARD
 70
     0
  3

 62
   256
 51
90.0
 52
90.0
 71
     2
 49
0.5
 62
   256
  6
BYLAYER
 49
-0.5
 62
   256
  6
BYLAYER
  0
ACDBPLACEHOLDER
  5
2D
102
{ACAD_REACTORS
330
E
102
}
330
E
  0
ACDBPLACEHOLDER
  5
F
102
{ACAD_REACTORS
330
E
102
}
330
E
  0
SCALE
  5
E0
102
{ACAD_REACTORS
330
DF
102
}
330
DF
100
AcDbScale
 70
     0
300
1:1
140
1.0
141
1.0
290
     1
  0
SCALE
  5
E1
102
{ACAD_REACTORS
330
DF
102
}
330
DF
100
AcDbScale
 70
     0
300
1/128" = 1'-0"
140
0.0078125
141
12.0
290
     0
  0
SCALE
  5
E2
102
{ACAD_REACTORS
330
DF
102
}
330
DF
100
AcDbScale
 70
     0
300
1/64" = 1'-0"
140
0.015625
141
12.0
290
     0
  0
SCALE
  5
E3
102
{ACAD_REACTORS
330
DF
102
}
330
DF
100
AcDbScale
 70
     0
300
1/32" = 1'-0"
140
0.03125
141
12.0
290
     0
  0
SCALE
  5
E4
102
{ACAD_REACTORS
330
DF
102
}
330
DF
100
AcDbScale
 70
     0
300
1/16" = 1'-0"
140
0.0625
141
12.0
290
     0
  0
SCALE
  5
E5
102
{ACAD_REACTORS
330
DF
102
}
330
DF
100
AcDbScale
 70
     0
300
3/32" = 1'-0"
140
0.09375
141
12.0
290
     0
  0
SCALE
  5
E6
102
{ACAD_REACTORS
330
DF
102
}
330
DF
100
AcDbScale
 70
     0
300
1/8" = 1'-0"
140
0.125
141
12.0
290
     0
  0
SCALE
  5
E7
102
{ACAD_REACTORS
330
DF
102
}
330
DF
100
AcDbScale
 70
     0
300
3/16" = 1'-0"
140
0.1875
141
12.0
290
     0
  0
SCALE
  5
E8
102
{ACAD_REACTORS
330
DF
102
}
330
DF
100
AcDbScale
 70
     0
300
1/4" = 1'-0"
140
0.25
141
12.0
290
     0
  0
SCALE
  5
E9
102
{ACAD_REACTORS
330
DF
102
}
330
DF
100
AcDbScale
 70
     0
300
3/8" = 1'-0"
140
0.375
141
12.0
290
     0
  0
SCALE
  5
EA
102
{ACAD_REACTORS
330
DF
102
}
330
DF
100
AcDbScale
 70
     0
300
1/2" = 1'-0"
140
0.5
141
12.0
290
     0
  0
SCALE
  5
EB
102
{ACAD_REACTORS
330
DF
102
}
330
DF
100
AcDbScale
 70
     0
300
3/4" = 1'-0"
140
0.75
141
12.0
290
     0
  0
SCALE
  5
EC
102
{ACAD_REACTORS
330
DF
102
}
330
DF
100
AcDbScale
 70
     0
300
1" = 1'-0"
140
1.0
141
12.0
290
     0
  0
SCALE
  5
ED
102
{ACAD_REACTORS
330
DF
102
}
330
DF
100
AcDbScale
 70
     0
300
1-1/2" = 1'-0"
140
1.5
141
12.0
290
     0
  0
SCALE
  5
EE
102
{ACAD_REACTORS
330
DF
102
}
330
DF
100
AcDbScale
 70
     0
300
3" = 1'-0"
140
3.0
141
12.0
290
     0
  0
SCALE
  5
EF
102
{ACAD_REACTORS
330
DF
102
}
330
DF
100
AcDbScale
 70
     0
300
6" = 1'-0"
140
6.0
141
12.0
290
     0
  0
SCALE
  5
F0
102
{ACAD_REACTORS
330
DF
102
}
330
DF
100
AcDbScale
 70
     0
300
1'-0" = 1'-0"
140
12.0
141
12.0
290
     0
  0
ACDBSECTIONVIEWSTYLE
  5
F4
102
{ACAD_XDICTIONARY
360
13A
102
}
102
{ACAD_REACTORS
330
F3
102
}
330
F3
100
AcDbModelDocViewStyle
 70
     0
  3
Imperial24
290
     0
100
AcDbSectionViewStyle
 70
     0
 71
     0
 90
       78
 71
     1
340
11
 62
   256
 40
0.24
340
0
340
0
 62
   256
 40
0.24
300
I, O, Q, S, X, Z
 40
0.48
 90
        3
 40
0.18
 90
        1
 71
     2
340
16
 90
       25
 62
   256
340
16
 90
       50
 62
   256
 40
0.24
 40
0.0
 40
0.24
 71
     3
340
11
 62
   256
 40
0.24
 90
        1
 40
0.75
 90
        1
300
%<\AcVar ViewType \f "%tc1">% %<\AcVar ViewSectionStartId>%-%<\AcVar ViewSectionEndId>%\PSCALE %<\AcVar ViewScale \f "%sn">%
 71
     4
 62
   256
 62
   257
300
ANSI31
 40
1.0
 90
        0
290
     0
290
     0
 90
        6
 40
0.0
 40
1.570796326794896
 40
0.2617993877991494
 40
1.308996938995747
 40
-0.2617993877991494
 40
1.832595714594046
  0
TABLESTYLE
  5
DE
102
{ACAD_XDICTIONARY
360
105
102
}
102
{ACAD_REACTORS
330
DD
102
}
330
DD
100
AcDbTableStyle
280
     0
  3
Standard
 70
     0
 71
     0
 40
0.06
 41
0.06
280
     0
281
     0
  7
Standard
140
0.18
170
     2
 62
     0
 63
     7
283
     0
 90
      512
 91
        0
  1

274
    -2
284
     1
 64
     0
275
    -2
285
     1
 65
     0
276
    -2
286
     1
 66
     0
277
    -2
287
     1
 67
     0
278
    -2
288
     1
 68
     0
279
    -2
289
     1
 69
     0
  7
Standard
140
0.25
170
     5
 62
     0
 63
     7
283
     0
 90
      512
 91
        0
  1

274
    -2
284
     1
 64
     0
275
    -2
285
     1
 65
     0
276
    -2
286
     1
 66
     0
277
    -2
287
     1
 67
     0
278
    -2
288
     1
 68
     0
279
    -2
289
     1
 69
     0
  7
Standard
140
0.18
170
     5
 62
     0
 63
     7
283
     0
 90
      512
 91
        0
  1

274
    -2
284
     1
 64
     0
275
    -2
285
     1
 65
     0
276
    -2
286
     1
 66
     0
277
    -2
287
     1
 67
     0
278
    -2
288
     1
 68
     0
279
    -2
289
     1
 69
     0
  0
VISUALSTYLE
  5
C9
102
{ACAD_XDICTIONARY
360
112
102
}
102
{ACAD_REACTORS
330
C3
102
}
330
C3
100
AcDbVisualStyle
  2
2dWireframe
 70
     4
177
     2
291
     0
 71
     0
176
     1
 72
     2
176
     1
 73
     0
176
     1
 90
        0
176
     1
 40
0.6
176
     1
 41
30.0
176
     1
 63
     7
421
 16777215
176
     1
 74
     1
176
     1
 91
        4
176
     1
 64
     7
176
     1
 65
   257
176
     1
 75
     1
176
     1
175
     1
176
     1
 42
1.0
176
     1
 92
        0
176
     1
 66
   257
176
     1
 43
1.0
176
     1
 76
     1
176
     1
 77
     6
176
     1
 78
     2
176
     1
 67
     7
176
     1
 79
     5
176
     1
170
     0
176
     1
171
     0
176
     1
290
     0
176
     1
 93
        1
176
     1
 44
0.0
176
     1
173
     0
176
     1
1001
ACAD
1000
AcDbSavedByObjectVersion
1070
     0
  0
VISUALSTYLE
  5
C8
102
{ACAD_XDICTIONARY
360
110
102
}
102
{ACAD_REACTORS
330
C3
102
}
330
C3
100
AcDbVisualStyle
  2
Basic
 70
     7
177
     2
291
     1
 71
     1
176
     1
 72
     0
176
     1
 73
     1
176
     1
 90
        0
176
     1
 40
0.6
176
     1
 41
30.0
176
     1
 63
     7
421
 16777215
176
     1
 74
     0
176
     1
 91
        4
176
     1
 64
     7
176
     1
 65
   257
176
     1
 75
     1
176
     1
175
     1
176
     1
 42
1.0
176
     1
 92
        8
176
     1
 66
     7
176
     1
 43
1.0
176
     1
 76
     1
176
     1
 77
     6
176
     1
 78
     2
176
     1
 67
     7
176
     1
 79
     5
176
     1
170
     0
176
     1
171
     0
176
     1
290
     0
176
     1
 93
        1
176
     1
 44
0.0
176
     1
173
     0
176
     1
1001
ACAD
1000
AcDbSavedByObjectVersion
1070
     0
  0
VISUALSTYLE
  5
CF
102
{ACAD_XDICTIONARY
360
11E
102
}
102
{ACAD_REACTORS
330
C3
102
}
330
C3
100
AcDbVisualStyle
  2
Brighten
 70
    12
177
     2
291
     1
 71
     2
176
     1
 72
     2
176
     1
 73
     0
176
     1
 90
        0
176
     1
 40
0.6
176
     1
 41
30.0
176
     1
 63
     7
421
 16777215
176
     1
 74
     1
176
     1
 91
        4
176
     1
 64
     7
176
     1
 65
   257
176
     1
 75
     1
176
     1
175
     1
176
     1
 42
1.0
176
     1
 92
        8
176
     1
 66
     7
176
     1
 43
1.0
176
     1
 76
     1
176
     1
 77
     6
176
     1
 78
     2
176
     1
 67
     7
176
     1
 79
     5
176
     1
170
     0
176
     1
171
     0
176
     1
290
     0
176
     1
 93
        1
176
     1
 44
50.0
176
     1
173
     0
176
     1
1001
ACAD
1000
AcDbSavedByObjectVersion
1070
     0
  0
VISUALSTYLE
  5
D3
102
{ACAD_XDICTIONARY
360
126
102
}
102
{ACAD_REACTORS
330
C3
102
}
330
C3
100
AcDbVisualStyle
  2
ColorChange
 70
    16
177
     2
291
     1
 71
     2
176
     1
 72
     2
176
     1
 73
     3
176
     1
 90
        0
176
     1
 40
0.6
176
     1
 41
30.0
176
     1
 63
     8
421
  8421504
176
     1
 74
     1
176
     1
 91
        4
176
     1
 64
     7
176
     1
 65
   257
176
     1
 75
     1
176
     1
175
     1
176
     1
 42
1.0
176
     1
 92
        8
176
     1
 66
     8
424
  8421504
176
     1
 43
1.0
176
     1
 76
     1
176
     1
 77
     6
176
     1
 78
     2
176
     1
 67
     7
176
     1
 79
     5
176
     1
170
     0
176
     1
171
     0
176
     1
290
     0
176
     1
 93
        1
176
     1
 44
0.0
176
     1
173
     0
176
     1
1001
ACAD
1000
AcDbSavedByObjectVersion
1070
     0
  0
VISUALSTYLE
  5
CC
102
{ACAD_XDICTIONARY
360
118
102
}
102
{ACAD_REACTORS
330
C3
102
}
330
C3
100
AcDbVisualStyle
  2
Conceptual
 70
     9
177
     2
291
     0
 71
     3
176
     1
 72
     2
176
     1
 73
     0
176
     1
 90
        0
176
     1
 40
0.6
176
     1
 41
30.0
176
     1
 63
     7
421
 16777215
176
     1
 74
     2
176
     1
 91
        2
176
     1
 64
     7
176
     1
 65
   257
176
     1
 75
     1
176
     1
175
     1
176
     1
 42
179.0
176
     1
 92
        8
176
     1
 66
     7
176
     1
 43
1.0
176
     1
 76
     1
176
     1
 77
     6
176
     1
 78
     2
176
     1
 67
     7
176
     1
 79
     3
176
     1
170
     0
176
     1
171
     0
176
     1
290
     0
176
     1
 93
        1
176
     1
 44
0.0
176
     1
173
     0
176
     1
1001
ACAD
1000
AcDbSavedByObjectVersion
1070
     0
  0
VISUALSTYLE
  5
CE
102
{ACAD_XDICTIONARY
360
11C
102
}
102
{ACAD_REACTORS
330
C3
102
}
330
C3
100
AcDbVisualStyle
  2
Dim
 70
    11
177
     2
291
     1
 71
     2
176
     1
 72
     2
176
     1
 73
     0
176
     1
 90
        0
176
     1
 40
0.6
176
     1
 41
30.0
176
     1
 63
     7
421
 16777215
176
     1
 74
     1
176
     1
 91
        4
176
     1
 64
     7
176
     1
 65
   257
176
     1
 75
     1
176
     1
175
     1
176
     1
 42
1.0
176
     1
 92
        8
176
     1
 66
     7
176
     1
 43
1.0
176
     1
 76
     1
176
     1
 77
     6
176
     1
 78
     2
176
     1
 67
     7
176
     1
 79
     5
176
     1
170
     0
176
     1
171
     0
176
     1
290
     0
176
     1
 93
        1
176
     1
 44
-50.0
176
     1
173
     0
176
     1
1001
ACAD
1000
AcDbSavedByObjectVersion
1070
     0
  0
VISUALSTYLE
  5
DB
102
{ACAD_XDICTIONARY
360
136
102
}
102
{ACAD_REACTORS
330
C3
102
}
330
C3
100
AcDbVisualStyle
  2
EdgeColorOff
 70
    22
177
     2
291
     1
 71
     2
176
     0
 72
     2
176
     0
 73
     0
176
     0
 90
        0
176
     0
 40
0.6
176
     0
 41
30.0
176
     0
 63
     7
421
 16777215
176
     0
 74
     1
176
     0
 91
        4
176
     0
 64
     7
176
     0
 65
   257
176
     0
 75
     1
176
     0
175
     1
176
     0
 42
1.0
176
     0
 92
        8
176
     2
 66
     7
176
     0
 43
1.0
176
     0
 76
     1
176
     0
 77
     6
176
     0
 78
     2
176
     0
 67
     7
176
     0
 79
     5
176
     0
170
     0
176
     0
171
     0
176
     0
290
     0
176
     0
 93
        1
176
     0
 44
0.0
176
     0
173
     0
176
     0
1001
ACAD
1000
AcDbSavedByObjectVersion
1070
     0
  0
VISUALSTYLE
  5
D2
102
{ACAD_XDICTIONARY
360
124
102
}
102
{ACAD_REACTORS
330
C3
102
}
330
C3
100
AcDbVisualStyle
  2
Facepattern
 70
    15
177
     2
291
     1
 71
     2
176
     1
 72
     2
176
     1
 73
     0
176
     1
 90
        0
176
     1
 40
0.6
176
     1
 41
30.0
176
     1
 63
     7
421
 16777215
176
     1
 74
     1
176
     1
 91
        4
176
     1
 64
     7
176
     1
 65
   257
176
     1
 75
     1
176
     1
175
     1
176
     1
 42
1.0
176
     1
 92
        8
176
     1
 66
     7
176
     1
 43
1.0
176
     1
 76
     1
176
     1
 77
     6
176
     1
 78
     2
176
     1
 67
     7
176
     1
 79
     5
176
     1
170
     0
176
     1
171
     0
176
     1
290
     0
176
     1
 93
        1
176
     1
 44
0.0
176
     1
173
     0
176
     1
1001
ACAD
1000
AcDbSavedByObjectVersion
1070
     0
  0
VISUALSTYLE
  5
C4
102
{ACAD_XDICTIONARY
360
108
102
}
102
{ACAD_REACTORS
330
C3
102
}
330
C3
100
AcDbVisualStyle
  2
Flat
 70
     0
177
     2
291
     1
 71
     2
176
     1
 72
     1
176
     1
 73
     1
176
     1
 90
        2
176
     1
 40
0.6
176
     1
 41
30.0
176
     1
 63
     7
421
 16777215
176
     1
 74
     0
176
     1
 91
        0
176
     1
 64
     7
176
     1
 65
   257
176
     1
 75
     1
176
     1
175
     1
176
     1
 42
1.0
176
     1
 92
        8
176
     1
 66
     7
176
     1
 43
1.0
176
     1
 76
     1
176
     1
 77
     6
176
     1
 78
     2
176
     1
 67
     7
176
     1
 79
     5
176
     1
170
     0
176
     1
171
     0
176
     1
290
     0
176
     1
 93
       13
176
     1
 44
0.0
176
     1
173
     0
176
     1
1001
ACAD
1000
AcDbSavedByObjectVersion
1070
     0
  0
VISUALSTYLE
  5
C5
102
{ACAD_XDICTIONARY
360
10A
102
}
102
{ACAD_REACTORS
330
C3
102
}
330
C3
100
AcDbVisualStyle
  2
FlatWithEdges
 70
     1
177
     2
291
     1
 71
     2
176
     1
 72
     1
176
     1
 73
     1
176
     1
 90
        2
176
     1
 40
0.6
176
     1
 41
30.0
176
     1
 63
     7
421
 16777215
176
     1
 74
     1
176
     1
 91
        0
176
     1
 64
     7
176
     1
 65
   257
176
     1
 75
     1
176
     1
175
     1
176
     1
 42
1.0
176
     1
 92
        0
176
     1
 66
   257
176
     1
 43
1.0
176
     1
 76
     1
176
     1
 77
     6
176
     1
 78
     2
176
     1
 67
     7
176
     1
 79
     5
176
     1
170
     0
176
     1
171
     0
176
     1
290
     0
176
     1
 93
       13
176
     1
 44
0.0
176
     1
173
     0
176
     1
1001
ACAD
1000
AcDbSavedByObjectVersion
1070
     0
  0
VISUALSTYLE
  5
C6
102
{ACAD_XDICTIONARY
360
10C
102
}
102
{ACAD_REACTORS
330
C3
102
}
330
C3
100
AcDbVisualStyle
  2
Gouraud
 70
     2
177
     2
291
     1
 71
     2
176
     1
 72
     2
176
     1
 73
     1
176
     1
 90
        2
176
     1
 40
0.6
176
     1
 41
30.0
176
     1
 63
     7
421
 16777215
176
     1
 74
     0
176
     1
 91
        0
176
     1
 64
     7
176
     1
 65
   257
176
     1
 75
     1
176
     1
175
     1
176
     1
 42
1.0
176
     1
 92
        0
176
     1
 66
     7
176
     1
 43
1.0
176
     1
 76
     1
176
     1
 77
     6
176
     1
 78
     2
176
     1
 67
     7
176
     1
 79
     5
176
     1
170
     0
176
     1
171
     0
176
     1
290
     0
176
     1
 93
       13
176
     1
 44
0.0
176
     1
173
     0
176
     1
1001
ACAD
1000
AcDbSavedByObjectVersion
1070
     0
  0
VISUALSTYLE
  5
C7
102
{ACAD_XDICTIONARY
360
10E
102
}
102
{ACAD_REACTORS
330
C3
102
}
330
C3
100
AcDbVisualStyle
  2
GouraudWithEdges
 70
     3
177
     2
291
     1
 71
     2
176
     1
 72
     2
176
     1
 73
     1
176
     1
 90
        2
176
     1
 40
0.6
176
     1
 41
30.0
176
     1
 63
     7
421
 16777215
176
     1
 74
     1
176
     1
 91
        0
176
     1
 64
     7
176
     1
 65
   257
176
     1
 75
     1
176
     1
175
     1
176
     1
 42
1.0
176
     1
 92
        0
176
     1
 66
   257
176
     1
 43
1.0
176
     1
 76
     1
176
     1
 77
     6
176
     1
 78
     2
176
     1
 67
     7
176
     1
 79
     5
176
     1
170
     0
176
     1
171
     0
176
     1
290
     0
176
     1
 93
       13
176
     1
 44
0.0
176
     1
173
     0
176
     1
1001
ACAD
1000
AcDbSavedByObjectVersion
1070
     0
  0
VISUALSTYLE
  5
CB
102
{ACAD_XDICTIONARY
360
116
102
}
102
{ACAD_REACTORS
330
C3
102
}
330
C3
100
AcDbVisualStyle
  2
Hidden
 70
     6
177
     2
291
     0
 71
     1
176
     1
 72
     2
176
     1
 73
     2
176
     1
 90
        0
176
     1
 40
0.6
176
     1
 41
30.0
176
     1
 63
     7
421
 16777215
176
     1
 74
     2
176
     1
 91
        2
176
     1
 64
     7
176
     1
 65
   257
176
     1
 75
     2
176
     1
175
     1
176
     1
 42
40.0
176
     1
 92
        0
176
     1
 66
   257
176
     1
 43
1.0
176
     1
 76
     1
176
     1
 77
     6
176
     1
 78
     2
176
     1
 67
     7
176
     1
 79
     3
176
     1
170
     0
176
     1
171
     0
176
     1
290
     0
176
     1
 93
        1
176
     1
 44
0.0
176
     1
173
     0
176
     1
1001
ACAD
1000
AcDbSavedByObjectVersion
1070
     0
  0
VISUALSTYLE
  5
D9
102
{ACAD_XDICTIONARY
360
132
102
}
102
{ACAD_REACTORS
330
C3
102
}
330
C3
100
AcDbVisualStyle
  2
JitterOff
 70
    20
177
     2
291
     1
 71
     2
176
     0
 72
     2
176
     0
 73
     0
176
     0
 90
        0
176
     0
 40
0.6
176
     0
 41
30.0
176
     0
 63
     7
421
 16777215
176
     0
 74
     1
176
     0
 91
        4
176
     0
 64
     7
176
     0
 65
   257
176
     0
 75
     1
176
     0
175
     1
176
     0
 42
1.0
176
     0
 92
       10
176
     2
 66
     7
176
     0
 43
1.0
176
     0
 76
     1
176
     0
 77
     6
176
     0
 78
     2
176
     0
 67
     7
176
     0
 79
     5
176
     0
170
     0
176
     0
171
     0
176
     0
290
     0
176
     0
 93
        1
176
     0
 44
0.0
176
     0
173
     0
176
     0
1001
ACAD
1000
AcDbSavedByObjectVersion
1070
     0
  0
VISUALSTYLE
  5
D1
102
{ACAD_XDICTIONARY
360
122
102
}
102
{ACAD_REACTORS
330
C3
102
}
330
C3
100
AcDbVisualStyle
  2
Linepattern
 70
    14
177
     2
291
     1
 71
     2
176
     1
 72
     2
176
     1
 73
     0
176
     1
 90
        0
176
     1
 40
0.6
176
     1
 41
30.0
176
     1
 63
     7
421
 16777215
176
     1
 74
     1
176
     1
 91
        4
176
     1
 64
     7
176
     1
 65
   257
176
     1
 75
     7
176
     1
175
     7
176
     1
 42
1.0
176
     1
 92
        8
176
     1
 66
     7
176
     1
 43
1.0
176
     1
 76
     1
176
     1
 77
     6
176
     1
 78
     2
176
     1
 67
     7
176
     1
 79
     5
176
     1
170
     0
176
     1
171
     0
176
     1
290
     0
176
     1
 93
        1
176
     1
 44
0.0
176
     1
173
     0
176
     1
1001
ACAD
1000
AcDbSavedByObjectVersion
1070
     0
  0
VISUALSTYLE
  5
DA
102
{ACAD_XDICTIONARY
360
134
102
}
102
{ACAD_REACTORS
330
C3
102
}
330
C3
100
AcDbVisualStyle
  2
OverhangOff
 70
    21
177
     2
291
     1
 71
     2
176
     0
 72
     2
176
     0
 73
     0
176
     0
 90
        0
176
     0
 40
0.6
176
     0
 41
30.0
176
     0
 63
     7
421
 16777215
176
     0
 74
     1
176
     0
 91
        4
176
     0
 64
     7
176
     0
 65
   257
176
     0
 75
     1
176
     0
175
     1
176
     0
 42
1.0
176
     0
 92
        9
176
     2
 66
     7
176
     0
 43
1.0
176
     0
 76
     1
176
     0
 77
     6
176
     0
 78
     2
176
     0
 67
     7
176
     0
 79
     5
176
     0
170
     0
176
     0
171
     0
176
     0
290
     0
176
     0
 93
        1
176
     0
 44
0.0
176
     0
173
     0
176
     0
1001
ACAD
1000
AcDbSavedByObjectVersion
1070
     0
  0
VISUALSTYLE
  5
CD
102
{ACAD_XDICTIONARY
360
11A
102
}
102
{ACAD_REACTORS
330
C3
102
}
330
C3
100
AcDbVisualStyle
  2
Realistic
 70
     8
177
     2
291
     0
 71
     2
176
     1
 72
     3
176
     1
 73
     0
176
     1
 90
        2
176
     1
 40
0.6
176
     1
 41
30.0
176
     1
 63
     7
421
 16777215
176
     1
 74
     0
176
     1
 91
        0
176
     1
 64
     7
176
     1
 65
   257
176
     1
 75
     1
176
     1
175
     1
176
     1
 42
1.0
176
     1
 92
        8
176
     1
 66
   257
176
     1
 43
1.0
176
     1
 76
     1
176
     1
 77
     6
176
     1
 78
     2
176
     1
 67
     7
176
     1
 79
     3
176
     1
170
     0
176
     1
171
     0
176
     1
290
     0
176
     1
 93
       13
176
     1
 44
0.0
176
     1
173
     0
176
     1
1001
ACAD
1000
AcDbSavedByObjectVersion
1070
     0
  0
VISUALSTYLE
  5
D8
102
{ACAD_XDICTIONARY
360
130
102
}
102
{ACAD_REACTORS
330
C3
102
}
330
C3
100
AcDbVisualStyle
  2
Shaded
 70
    27
177
     2
291
     0
 71
     2
176
     1
 72
     2
176
     1
 73
     1
176
     1
 90
        2
176
     1
 40
0.6
176
     1
 41
30.0
176
     1
 63
     7
421
 16777215
176
     1
 74
     0
176
     1
 91
        4
176
     1
 64
     7
176
     1
 65
   257
176
     1
 75
     1
176
     1
175
     1
176
     1
 42
1.0
176
     1
 92
        8
176
     1
 66
   257
176
     1
 43
1.0
176
     1
 76
     1
176
     1
 77
     6
176
     1
 78
     2
176
     1
 67
     8
425
  7895160
176
     1
 79
     3
176
     1
170
     0
176
     1
171
     0
176
     1
290
     0
176
     1
 93
        5
176
     1
 44
0.0
176
     1
173
     0
176
     1
1001
ACAD
1000
AcDbSavedByObjectVersion
1070
     0
  0
VISUALSTYLE
  5
D7
102
{ACAD_XDICTIONARY
360
12E
102
}
102
{ACAD_REACTORS
330
C3
102
}
330
C3
100
AcDbVisualStyle
  2
Shaded with edges
 70
    26
177
     2
291
     0
 71
     2
176
     1
 72
     2
176
     1
 73
     1
176
     1
 90
        2
176
     1
 40
0.6
176
     1
 41
30.0
176
     1
 63
     7
421
 16777215
176
     1
 74
     1
176
     1
 91
       10
176
     1
 64
     7
176
     1
 65
   257
176
     1
 75
     2
176
     1
175
     1
176
     1
 42
1.0
176
     1
 92
        8
176
     1
 66
   257
176
     1
 43
1.0
176
     1
 76
     1
176
     1
 77
     6
176
     1
 78
     2
176
     1
 67
     7
176
     1
 79
     3
176
     1
170
     0
176
     1
171
     0
176
     1
290
     0
176
     1
 93
        5
176
     1
 44
0.0
176
     1
173
     0
176
     1
1001
ACAD
1000
AcDbSavedByObjectVersion
1070
     0
  0
VISUALSTYLE
  5
D4
102
{ACAD_XDICTIONARY
360
128
102
}
102
{ACAD_REACTORS
330
C3
102
}
330
C3
100
AcDbVisualStyle
  2
Shades of Gray
 70
    23
177
     2
291
     0
 71
     2
176
     1
 72
     2
176
     1
 73
     3
176
     1
 90
        0
176
     1
 40
0.6
176
     1
 41
30.0
176
     1
 63
     7
421
 16777215
176
     1
 74
     2
176
     1
 91
        2
176
     1
 64
     7
176
     1
 65
     7
176
     1
 75
     1
176
     1
175
     1
176
     1
 42
40.0
176
     1
 92
        8
176
     1
 66
     7
176
     1
 43
1.0
176
     1
 76
     1
176
     1
 77
     6
176
     1
 78
     2
176
     1
 67
     7
176
     1
 79
     3
176
     1
170
     0
176
     1
171
     0
176
     1
290
     0
176
     1
 93
        1
176
     1
 44
0.0
176
     1
173
     0
176
     1
1001
ACAD
1000
AcDbSavedByObjectVersion
1070
     0
  0
VISUALSTYLE
  5
D5
102
{ACAD_XDICTIONARY
360
12A
102
}
102
{ACAD_REACTORS
330
C3
102
}
330
C3
100
AcDbVisualStyle
  2
Sketchy
 70
    24
177
     2
291
     0
 71
     1
176
     1
 72
     2
176
     1
 73
     2
176
     1
 90
        0
176
     1
 40
0.6
176
     1
 41
30.0
176
     1
 63
     7
421
 16777215
176
     1
 74
     2
176
     1
 91
        2
176
     1
 64
     7
176
     1
 65
     7
176
     1
 75
     1
176
     1
175
     1
176
     1
 42
40.0
176
     1
 92
       11
176
     1
 66
     7
176
     1
 43
1.0
176
     1
 76
     1
176
     1
 77
     6
176
     1
 78
     2
176
     1
 67
     7
176
     1
 79
     6
176
     1
170
     0
176
     1
171
     0
176
     1
290
     0
176
     1
 93
        1
176
     1
 44
0.0
176
     1
173
     0
176
     1
1001
ACAD
1000
AcDbSavedByObjectVersion
1070
     0
  0
VISUALSTYLE
  5
D0
102
{ACAD_XDICTIONARY
360
120
102
}
102
{ACAD_REACTORS
330
C3
102
}
330
C3
100
AcDbVisualStyle
  2
Thicken
 70
    13
177
     2
291
     1
 71
     2
176
     1
 72
     2
176
     1
 73
     0
176
     1
 90
        0
176
     1
 40
0.6
176
     1
 41
30.0
176
     1
 63
     7
421
 16777215
176
     1
 74
     1
176
     1
 91
        4
176
     1
 64
     7
176
     1
 65
   257
176
     1
 75
     1
176
     1
175
     1
176
     1
 42
1.0
176
     1
 92
       12
176
     1
 66
     7
176
     1
 43
1.0
176
     1
 76
     1
176
     1
 77
     6
176
     1
 78
     2
176
     1
 67
     7
176
     1
 79
     5
176
     1
170
     0
176
     1
171
     0
176
     1
290
     0
176
     1
 93
        1
176
     1
 44
0.0
176
     1
173
     0
176
     1
1001
ACAD
1000
AcDbSavedByObjectVersion
1070
     0
  0
VISUALSTYLE
  5
CA
102
{ACAD_XDICTIONARY
360
114
102
}
102
{ACAD_REACTORS
330
C3
102
}
330
C3
100
AcDbVisualStyle
  2
Wireframe
 70
     5
177
     2
291
     0
 71
     0
176
     1
 72
     2
176
     1
 73
     0
176
     1
 90
        0
176
     1
 40
0.6
176
     1
 41
30.0
176
     1
 63
     7
421
 16777215
176
     1
 74
     1
176
     1
 91
        4
176
     1
 64
     7
176
     1
 65
   257
176
     1
 75
     1
176
     1
175
     1
176
     1
 42
1.0
176
     1
 92
        0
176
     1
 66
   257
176
     1
 43
1.0
176
     1
 76
     1
176
     1
 77
     6
176
     1
 78
     2
176
     1
 67
     7
176
     1
 79
     3
176
     1
170
     0
176
     1
171
     0
176
     1
290
     0
176
     1
 93
        1
176
     1
 44
0.0
176
     1
173
     0
176
     1
1001
ACAD
1000
AcDbSavedByObjectVersion
1070
     0
  0
VISUALSTYLE
  5
D6
102
{ACAD_XDICTIONARY
360
12C
102
}
102
{ACAD_REACTORS
330
C3
102
}
330
C3
100
AcDbVisualStyle
  2
X-Ray
 70
    25
177
     2
291
     0
 71
     2
176
     1
 72
     2
176
     1
 73
     1
176
     1
 90
        1
176
     1
 40
0.5
176
     1
 41
30.0
176
     1
 63
     7
421
 16777215
176
     1
 74
     1
176
     1
 91
        0
176
     1
 64
     7
176
     1
 65
   257
176
     1
 75
     1
176
     1
175
     1
176
     1
 42
1.0
176
     1
 92
        8
176
     1
 66
     7
176
     1
 43
1.0
176
     1
 76
     1
176
     1
 77
     6
176
     1
 78
     2
176
     1
 67
     7
176
     1
 79
     3
176
     1
170
     0
176
     1
171
     0
176
     1
290
     0
176
     1
 93
       13
176
     1
 44
0.0
176
     1
173
     0
176
     1
1001
ACAD
1000
AcDbSavedByObjectVersion
1070
     0
  0
DICTIONARYVAR
  5
101
102
{ACAD_REACTORS
330
FB
102
}
330
FB
100
DictionaryVariables
280
     0
  1
1:1
  0
DICTIONARYVAR
  5
FD
102
{ACAD_REACTORS
330
FB
102
}
330
FB
100
DictionaryVariables
280
     0
  1
STANDARD
  0
DICTIONARYVAR
  5
FC
102
{ACAD_REACTORS
330
FB
102
}
330
FB
100
DictionaryVariables
280
     0
  1
STANDARD
  0
DICTIONARYVAR
  5
FE
102
{ACAD_REACTORS
330
FB
102
}
330
FB
100
DictionaryVariables
280
     0
  1
Imperial24
  0
DICTIONARYVAR
  5
FF
102
{ACAD_REACTORS
330
FB
102
}
330
FB
100
DictionaryVariables
280
     0
  1
Imperial24
  0
DICTIONARYVAR
  5
103
102
{ACAD_REACTORS
330
FB
102
}
330
FB
100
DictionaryVariables
280
     0
  1
1
  0
DICTIONARYVAR
  5
104
102
{ACAD_REACTORS
330
FB
102
}
330
FB
100
DictionaryVariables
280
     0
  1
15
  0
DICTIONARYVAR
  5
102
102
{ACAD_REACTORS
330
FB
102
}
330
FB
100
DictionaryVariables
280
     0
  1
0
  0
DICTIONARYVAR
  5
100
102
{ACAD_REACTORS
330
FB
102
}
330
FB
100
DictionaryVariables
280
     0
  1
0
  0
DICTIONARY
  5
13C
330
F6
100
AcDbDictionary
280
     1
281
     1
  3
ACAD_XREC_ROUNDTRIP
360
13D
  0
DICTIONARY
  5
B4
330
B3
100
AcDbDictionary
280
     1
281
     1
  3
BUMPTILE
360
B6
  3
DIFFUSETILE
360
B5
  3
OPACITYTILE
360
B9
  3
REFLECTIONTILE
360
B8
  3
REFRACTIONTILE
360
BA
  3
SPECULARTILE
360
B7
  0
DICTIONARY
  5
AC
330
AB
100
AcDbDictionary
280
     1
281
     1
  3
BUMPTILE
360
AE
  3
DIFFUSETILE
360
AD
  3
OPACITYTILE
360
B1
  3
REFLECTIONTILE
360
B0
  3
REFRACTIONTILE
360
B2
  3
SPECULARTILE
360
AF
  0
DICTIONARY
  5
BC
330
BB
100
AcDbDictionary
280
     1
281
     1
  3
BUMPTILE
360
BE
  3
DIFFUSETILE
360
BD
  3
OPACITYTILE
360
C1
  3
REFLECTIONTILE
360
C0
  3
REFRACTIONTILE
360
C2
  3
SPECULARTILE
360
BF
  0
DICTIONARY
  5
138
330
F2
100
AcDbDictionary
280
     1
281
     1
  3
ACAD_XREC_ROUNDTRIP
360
139
  0
DICTIONARY
  5
13A
330
F4
100
AcDbDictionary
280
     1
281
     1
  3
ACAD_XREC_ROUNDTRIP
360
13B
  0
DICTIONARY
  5
105
330
DE
100
AcDbDictionary
280
     1
281
     1
  3
ACAD_ROUNDTRIP_2008_TABLESTYLE_CELLSTYLEMAP
360
106
  0
DICTIONARY
  5
112
330
C9
100
AcDbDictionary
280
     1
281
     1
  3
ACAD_XREC_ROUNDTRIP
360
113
  0
DICTIONARY
  5
110
330
C8
100
AcDbDictionary
280
     1
281
     1
  3
ACAD_XREC_ROUNDTRIP
360
111
  0
DICTIONARY
  5
11E
330
CF
100
AcDbDictionary
280
     1
281
     1
  3
ACAD_XREC_ROUNDTRIP
360
11F
  0
DICTIONARY
  5
126
330
D3
100
AcDbDictionary
280
     1
281
     1
  3
ACAD_XREC_ROUNDTRIP
360
127
  0
DICTIONARY
  5
118
330
CC
100
AcDbDictionary
280
     1
281
     1
  3
ACAD_XREC_ROUNDTRIP
360
119
  0
DICTIONARY
  5
11C
330
CE
100
AcDbDictionary
280
     1
281
     1
  3
ACAD_XREC_ROUNDTRIP
360
11D
  0
DICTIONARY
  5
136
330
DB
100
AcDbDictionary
280
     1
281
     1
  3
ACAD_XREC_ROUNDTRIP
360
137
  0
DICTIONARY
  5
124
330
D2
100
AcDbDictionary
280
     1
281
     1
  3
ACAD_XREC_ROUNDTRIP
360
125
  0
DICTIONARY
  5
108
330
C4
100
AcDbDictionary
280
     1
281
     1
  3
ACAD_XREC_ROUNDTRIP
360
109
  0
DICTIONARY
  5
10A
330
C5
100
AcDbDictionary
280
     1
281
     1
  3
ACAD_XREC_ROUNDTRIP
360
10B
  0
DICTIONARY
  5
10C
330
C6
100
AcDbDictionary
280
     1
281
     1
  3
ACAD_XREC_ROUNDTRIP
360
10D
  0
DICTIONARY
  5
10E
330
C7
100
AcDbDictionary
280
     1
281
     1
  3
ACAD_XREC_ROUNDTRIP
360
10F
  0
DICTIONARY
  5
116
330
CB
100
AcDbDictionary
280
     1
281
     1
  3
ACAD_XREC_ROUNDTRIP
360
117
  0
DICTIONARY
  5
132
330
D9
100
AcDbDictionary
280
     1
281
     1
  3
ACAD_XREC_ROUNDTRIP
360
133
  0
DICTIONARY
  5
122
330
D1
100
AcDbDictionary
280
     1
281
     1
  3
ACAD_XREC_ROUNDTRIP
360
123
  0
DICTIONARY
  5
134
330
DA
100
AcDbDictionary
280
     1
281
     1
  3
ACAD_XREC_ROUNDTRIP
360
135
  0
DICTIONARY
  5
11A
330
CD
100
AcDbDictionary
280
     1
281
     1
  3
ACAD_XREC_ROUNDTRIP
360
11B
  0
DICTIONARY
  5
130
330
D8
100
AcDbDictionary
280
     1
281
     1
  3
ACAD_XREC_ROUNDTRIP
360
131
  0
DICTIONARY
  5
12E
330
D7
100
AcDbDictionary
280
     1
281
     1
  3
ACAD_XREC_ROUNDTRIP
360
12F
  0
DICTIONARY
  5
128
330
D4
100
AcDbDictionary
280
     1
281
     1
  3
ACAD_XREC_ROUNDTRIP
360
129
  0
DICTIONARY
  5
12A
330
D5
100
AcDbDictionary
280
     1
281
     1
  3
ACAD_XREC_ROUNDTRIP
360
12B
  0
DICTIONARY
  5
120
330
D0
100
AcDbDictionary
280
     1
281
     1
  3
ACAD_XREC_ROUNDTRIP
360
121
  0
DICTIONARY
  5
114
330
CA
100
AcDbDictionary
280
     1
281
     1
  3
ACAD_XREC_ROUNDTRIP
360
115
  0
DICTIONARY
  5
12C
330
D6
100
AcDbDictionary
280
     1
281
     1
  3
ACAD_XREC_ROUNDTRIP
360
12D
  0
XRECORD
  5
13D
102
{ACAD_REACTORS
330
13C
102
}
330
13C
100
AcDbXrecord
280
     1
102
DISPLAYNAME
  1
Imperial24
102
FLAGS
 90
        0
  0
XRECORD
  5
B6
102
{ACAD_REACTORS
330
B4
102
}
330
B4
100
AcDbXrecord
280
     1
270
     1
271
     1
  0
XRECORD
  5
B5
102
{ACAD_REACTORS
330
B4
102
}
330
B4
100
AcDbXrecord
280
     1
270
     1
271
     1
  0
XRECORD
  5
B9
102
{ACAD_REACTORS
330
B4
102
}
330
B4
100
AcDbXrecord
280
     1
270
     1
271
     1
  0
XRECORD
  5
B8
102
{ACAD_REACTORS
330
B4
102
}
330
B4
100
AcDbXrecord
280
     1
270
     1
271
     1
  0
XRECORD
  5
BA
102
{ACAD_REACTORS
330
B4
102
}
330
B4
100
AcDbXrecord
280
     1
270
     1
271
     1
  0
XRECORD
  5
B7
102
{ACAD_REACTORS
330
B4
102
}
330
B4
100
AcDbXrecord
280
     1
270
     1
271
     1
  0
XRECORD
  5
AE
102
{ACAD_REACTORS
330
AC
102
}
330
AC
100
AcDbXrecord
280
     1
270
     1
271
     1
  0
XRECORD
  5
AD
102
{ACAD_REACTORS
330
AC
102
}
330
AC
100
AcDbXrecord
280
     1
270
     1
271
     1
  0
XRECORD
  5
B1
102
{ACAD_REACTORS
330
AC
102
}
330
AC
100
AcDbXrecord
280
     1
270
     1
271
     1
  0
XRECORD
  5
B0
102
{ACAD_REACTORS
330
AC
102
}
330
AC
100
AcDbXrecord
280
     1
270
     1
271
     1
  0
XRECORD
  5
B2
102
{ACAD_REACTORS
330
AC
102
}
330
AC
100
AcDbXrecord
280
     1
270
     1
271
     1
  0
XRECORD
  5
AF
102
{ACAD_REACTORS
330
AC
102
}
330
AC
100
AcDbXrecord
280
     1
270
     1
271
     1
  0
XRECORD
  5
BE
102
{ACAD_REACTORS
330
BC
102
}
330
BC
100
AcDbXrecord
280
     1
270
     1
271
     1
  0
XRECORD
  5
BD
102
{ACAD_REACTORS
330
BC
102
}
330
BC
100
AcDbXrecord
280
     1
270
     1
271
     1
  0
XRECORD
  5
C1
102
{ACAD_REACTORS
330
BC
102
}
330
BC
100
AcDbXrecord
280
     1
270
     1
271
     1
  0
XRECORD
  5
C0
102
{ACAD_REACTORS
330
BC
102
}
330
BC
100
AcDbXrecord
280
     1
270
     1
271
     1
  0
XRECORD
  5
C2
102
{ACAD_REACTORS
330
BC
102
}
330
BC
100
AcDbXrecord
280
     1
270
     1
271
     1
  0
XRECORD
  5
BF
102
{ACAD_REACTORS
330
BC
102
}
330
BC
100
AcDbXrecord
280
     1
270
     1
271
     1
  0
XRECORD
  5
139
102
{ACAD_REACTORS
330
138
102
}
330
138
100
AcDbXrecord
280
     1
102
ACAD_ROUNDTRIP_2012_MLEADER_STYLE
298
     1
  0
XRECORD
  5
13B
102
{ACAD_REACTORS
330
13A
102
}
330
13A
100
AcDbXrecord
280
     1
102
DISPLAYNAME
  1
Imperial24
102
FLAGS
 90
        0
  0
CELLSTYLEMAP
  5
106
102
{ACAD_REACTORS
330
105
102
}
330
105
100
AcDbCellStyleMap
 90
        3
300
CELLSTYLE
  1
TABLEFORMAT_BEGIN
 90
        5
170
     1
 91
        0
 92
    32768
 62
   257
 93
        1
300
CONTENTFORMAT
  1
CONTENTFORMAT_BEGIN
 90
        0
 91
        0
 92
      512
 93
        0
300

 40
0.0
140
1.0
 94
        5
 62
     0
340
11
144
0.25
309
CONTENTFORMAT_END
171
     0
 94
        0
309
TABLEFORMAT_END
  1
CELLSTYLE_BEGIN
 90
        1
 91
        1
300
_TITLE
309
CELLSTYLE_END
300
CELLSTYLE
  1
TABLEFORMAT_BEGIN
 90
        5
170
     1
 91
        0
 92
        0
 62
   257
 93
        1
300
CONTENTFORMAT
  1
CONTENTFORMAT_BEGIN
 90
        0
 91
        0
 92
      512
 93
        0
300

 40
0.0
140
1.0
 94
        5
 62
     0
340
11
144
0.18
309
CONTENTFORMAT_END
171
     0
 94
        0
309
TABLEFORMAT_END
  1
CELLSTYLE_BEGIN
 90
        2
 91
        1
300
_HEADER
309
CELLSTYLE_END
300
CELLSTYLE
  1
TABLEFORMAT_BEGIN
 90
        5
170
     1
 91
        0
 92
        0
 62
   257
 93
        1
300
CONTENTFORMAT
  1
CONTENTFORMAT_BEGIN
 90
        0
 91
        0
 92
      512
 93
        0
300

 40
0.0
140
1.0
 94
        2
 62
     0
340
11
144
0.18
309
CONTENTFORMAT_END
171
     0
 94
        0
309
TABLEFORMAT_END
  1
CELLSTYLE_BEGIN
 90
        3
 91
        2
300
_DATA
309
CELLSTYLE_END
  0
XRECORD
  5
113
102
{ACAD_REACTORS
330
112
102
}
330
112
100
AcDbXrecord
280
     1
102
RTVSPost2010Prop28
280
     1
102
RTVSPost2010PropOp28
 70
     1
102
RTVSPost2010Prop29
280
     1
102
RTVSPost2010PropOp29
 70
     1
102
RTVSPost2010Prop30
280
     0
102
RTVSPost2010PropOp30
 70
     1
102
RTVSPost2010Prop31
280
     0
102
RTVSPost2010PropOp31
 70
     1
102
RTVSPost2010Prop32
280
     0
102
RTVSPost2010PropOp32
 70
     1
102
RTVSPost2010Prop33
280
     0
102
RTVSPost2010PropOp33
 70
     1
102
RTVSPost2010Prop34
280
     0
102
RTVSPost2010PropOp34
 70
     1
102
RTVSPost2010Prop35
280
     0
102
RTVSPost2010PropOp35
 70
     1
102
RTVSPost2010Prop36
280
     0
102
RTVSPost2010PropOp36
 70
     1
102
RTVSPost2010Prop37
 90
       50
102
RTVSPost2010PropOp37
 70
     1
102
RTVSPost2010Prop38
140
0.0
102
RTVSPost2010PropOp38
 70
     1
102
RTVSPost2010Prop39
140
1.0
102
RTVSPost2010PropOp39
 70
     1
102
RTVSPost2010Prop40
 90
        0
102
RTVSPost2010PropOp40
 70
     1
102
RTVSPost2010Prop41ColorIndex
 90
       18
102
RTVSPost2010Prop41ColorRGB
 90
        0
102
RTVSPost2010PropOp41
 70
     1
102
RTVSPost2010Prop42
 90
       50
102
RTVSPost2010PropOp42
 70
     1
102
RTVSPost2010Prop43
 90
        3
102
RTVSPost2010PropOp43
 70
     1
102
RTVSPost2010Prop44ColorIndex
 90
        5
102
RTVSPost2010Prop44ColorRGB
 90
      255
102
RTVSPost2010PropOp44
 70
     1
102
RTVSPost2010Prop45
280
     0
102
RTVSPost2010PropOp45
 70
     1
102
RTVSPost2010Prop46
 90
       50
102
RTVSPost2010PropOp46
 70
     1
102
RTVSPost2010Prop47
 90
       50
102
RTVSPost2010PropOp47
 70
     1
102
RTVSPost2010Prop48
 90
       50
102
RTVSPost2010PropOp48
 70
     1
102
RTVSPost2010Prop49
280
     0
102
RTVSPost2010PropOp49
 70
     1
102
RTVSPost2010Prop50
 90
       50
102
RTVSPost2010PropOp50
 70
     1
102
RTVSPost2010Prop51ColorIndex
 90
      256
102
RTVSPost2010Prop51ColorRGB
 90
-16777216
102
RTVSPost2010PropOp51
 70
     0
102
RTVSPost2010Prop52
140
1.0
102
RTVSPost2010PropOp52
 70
     0
102
RTVSPost2010Prop53
 90
        2
102
RTVSPost2010PropOp53
 70
     1
102
RTVSPost2010Prop54
  1
strokes_ogs.tif
102
RTVSPost2010PropOp54
 70
     1
102
RTVSPost2010Prop55
280
     0
102
RTVSPost2010PropOp55
 70
     1
102
RTVSPost2010Prop56
140
1.0
102
RTVSPost2010PropOp56
 70
     1
102
RTVSPost2010Prop57
140
1.0
102
RTVSPost2010PropOp57
 70
     1
  0
XRECORD
  5
111
102
{ACAD_REACTORS
330
110
102
}
330
110
100
AcDbXrecord
280
     1
102
RTVSPost2010Prop28
280
     0
102
RTVSPost2010PropOp28
 70
     1
102
RTVSPost2010Prop29
280
     1
102
RTVSPost2010PropOp29
 70
     1
102
RTVSPost2010Prop30
280
     1
102
RTVSPost2010PropOp30
 70
     1
102
RTVSPost2010Prop31
280
     0
102
RTVSPost2010PropOp31
 70
     1
102
RTVSPost2010Prop32
280
     0
102
RTVSPost2010PropOp32
 70
     1
102
RTVSPost2010Prop33
280
     0
102
RTVSPost2010PropOp33
 70
     1
102
RTVSPost2010Prop34
280
     0
102
RTVSPost2010PropOp34
 70
     1
102
RTVSPost2010Prop35
280
     0
102
RTVSPost2010PropOp35
 70
     1
102
RTVSPost2010Prop36
280
     0
102
RTVSPost2010PropOp36
 70
     1
102
RTVSPost2010Prop37
 90
       50
102
RTVSPost2010PropOp37
 70
     1
102
RTVSPost2010Prop38
140
0.0
102
RTVSPost2010PropOp38
 70
     1
102
RTVSPost2010Prop39
140
1.0
102
RTVSPost2010PropOp39
 70
     1
102
RTVSPost2010Prop40
 90
        0
102
RTVSPost2010PropOp40
 70
     1
102
RTVSPost2010Prop41ColorIndex
 90
       18
102
RTVSPost2010Prop41ColorRGB
 90
        0
102
RTVSPost2010PropOp41
 70
     1
102
RTVSPost2010Prop42
 90
       50
102
RTVSPost2010PropOp42
 70
     1
102
RTVSPost2010Prop43
 90
        3
102
RTVSPost2010PropOp43
 70
     1
102
RTVSPost2010Prop44ColorIndex
 90
        5
102
RTVSPost2010Prop44ColorRGB
 90
      255
102
RTVSPost2010PropOp44
 70
     1
102
RTVSPost2010Prop45
280
     0
102
RTVSPost2010PropOp45
 70
     1
102
RTVSPost2010Prop46
 90
       50
102
RTVSPost2010PropOp46
 70
     1
102
RTVSPost2010Prop47
 90
       50
102
RTVSPost2010PropOp47
 70
     1
102
RTVSPost2010Prop48
 90
       50
102
RTVSPost2010PropOp48
 70
     1
102
RTVSPost2010Prop49
280
     0
102
RTVSPost2010PropOp49
 70
     1
102
RTVSPost2010Prop50
 90
       50
102
RTVSPost2010PropOp50
 70
     1
102
RTVSPost2010Prop51ColorIndex
 90
      256
102
RTVSPost2010Prop51ColorRGB
 90
-16777216
102
RTVSPost2010PropOp51
 70
     0
102
RTVSPost2010Prop52
140
1.0
102
RTVSPost2010PropOp52
 70
     0
102
RTVSPost2010Prop53
 90
        2
102
RTVSPost2010PropOp53
 70
     1
102
RTVSPost2010Prop54
  1
strokes_ogs.tif
102
RTVSPost2010PropOp54
 70
     1
102
RTVSPost2010Prop55
280
     0
102
RTVSPost2010PropOp55
 70
     1
102
RTVSPost2010Prop56
140
1.0
102
RTVSPost2010PropOp56
 70
     1
102
RTVSPost2010Prop57
140
1.0
102
RTVSPost2010PropOp57
 70
     1
  0
XRECORD
  5
11F
102
{ACAD_REACTORS
330
11E
102
}
330
11E
100
AcDbXrecord
280
     1
102
RTVSPost2010Prop28
280
     0
102
RTVSPost2010PropOp28
 70
     1
102
RTVSPost2010Prop29
280
     1
102
RTVSPost2010PropOp29
 70
     1
102
RTVSPost2010Prop30
280
     1
102
RTVSPost2010PropOp30
 70
     1
102
RTVSPost2010Prop31
280
     0
102
RTVSPost2010PropOp31
 70
     1
102
RTVSPost2010Prop32
280
     0
102
RTVSPost2010PropOp32
 70
     1
102
RTVSPost2010Prop33
280
     0
102
RTVSPost2010PropOp33
 70
     1
102
RTVSPost2010Prop34
280
     0
102
RTVSPost2010PropOp34
 70
     1
102
RTVSPost2010Prop35
280
     0
102
RTVSPost2010PropOp35
 70
     1
102
RTVSPost2010Prop36
280
     0
102
RTVSPost2010PropOp36
 70
     1
102
RTVSPost2010Prop37
 90
       50
102
RTVSPost2010PropOp37
 70
     1
102
RTVSPost2010Prop38
140
0.0
102
RTVSPost2010PropOp38
 70
     1
102
RTVSPost2010Prop39
140
1.0
102
RTVSPost2010PropOp39
 70
     1
102
RTVSPost2010Prop40
 90
        0
102
RTVSPost2010PropOp40
 70
     1
102
RTVSPost2010Prop41ColorIndex
 90
       18
102
RTVSPost2010Prop41ColorRGB
 90
        0
102
RTVSPost2010PropOp41
 70
     1
102
RTVSPost2010Prop42
 90
       50
102
RTVSPost2010PropOp42
 70
     1
102
RTVSPost2010Prop43
 90
        3
102
RTVSPost2010PropOp43
 70
     1
102
RTVSPost2010Prop44ColorIndex
 90
        5
102
RTVSPost2010Prop44ColorRGB
 90
      255
102
RTVSPost2010PropOp44
 70
     1
102
RTVSPost2010Prop45
280
     0
102
RTVSPost2010PropOp45
 70
     1
102
RTVSPost2010Prop46
 90
       50
102
RTVSPost2010PropOp46
 70
     1
102
RTVSPost2010Prop47
 90
       50
102
RTVSPost2010PropOp47
 70
     1
102
RTVSPost2010Prop48
 90
       50
102
RTVSPost2010PropOp48
 70
     1
102
RTVSPost2010Prop49
280
     0
102
RTVSPost2010PropOp49
 70
     1
102
RTVSPost2010Prop50
 90
       50
102
RTVSPost2010PropOp50
 70
     1
102
RTVSPost2010Prop51ColorIndex
 90
      256
102
RTVSPost2010Prop51ColorRGB
 90
-16777216
102
RTVSPost2010PropOp51
 70
     0
102
RTVSPost2010Prop52
140
1.0
102
RTVSPost2010PropOp52
 70
     0
102
RTVSPost2010Prop53
 90
        2
102
RTVSPost2010PropOp53
 70
     1
102
RTVSPost2010Prop54
  1
strokes_ogs.tif
102
RTVSPost2010PropOp54
 70
     1
102
RTVSPost2010Prop55
280
     0
102
RTVSPost2010PropOp55
 70
     1
102
RTVSPost2010Prop56
140
1.0
102
RTVSPost2010PropOp56
 70
     1
102
RTVSPost2010Prop57
140
1.0
102
RTVSPost2010PropOp57
 70
     1
  0
XRECORD
  5
127
102
{ACAD_REACTORS
330
126
102
}
330
126
100
AcDbXrecord
280
     1
102
RTVSPost2010Prop28
280
     0
102
RTVSPost2010PropOp28
 70
     1
102
RTVSPost2010Prop29
280
     1
102
RTVSPost2010PropOp29
 70
     1
102
RTVSPost2010Prop30
280
     1
102
RTVSPost2010PropOp30
 70
     1
102
RTVSPost2010Prop31
280
     0
102
RTVSPost2010PropOp31
 70
     1
102
RTVSPost2010Prop32
280
     0
102
RTVSPost2010PropOp32
 70
     1
102
RTVSPost2010Prop33
280
     0
102
RTVSPost2010PropOp33
 70
     1
102
RTVSPost2010Prop34
280
     0
102
RTVSPost2010PropOp34
 70
     1
102
RTVSPost2010Prop35
280
     0
102
RTVSPost2010PropOp35
 70
     1
102
RTVSPost2010Prop36
280
     0
102
RTVSPost2010PropOp36
 70
     1
102
RTVSPost2010Prop37
 90
       50
102
RTVSPost2010PropOp37
 70
     1
102
RTVSPost2010Prop38
140
0.0
102
RTVSPost2010PropOp38
 70
     1
102
RTVSPost2010Prop39
140
1.0
102
RTVSPost2010PropOp39
 70
     1
102
RTVSPost2010Prop40
 90
        0
102
RTVSPost2010PropOp40
 70
     1
102
RTVSPost2010Prop41ColorIndex
 90
       18
102
RTVSPost2010Prop41ColorRGB
 90
        0
102
RTVSPost2010PropOp41
 70
     1
102
RTVSPost2010Prop42
 90
       50
102
RTVSPost2010PropOp42
 70
     1
102
RTVSPost2010Prop43
 90
        3
102
RTVSPost2010PropOp43
 70
     1
102
RTVSPost2010Prop44ColorIndex
 90
        5
102
RTVSPost2010Prop44ColorRGB
 90
      255
102
RTVSPost2010PropOp44
 70
     1
102
RTVSPost2010Prop45
280
     0
102
RTVSPost2010PropOp45
 70
     1
102
RTVSPost2010Prop46
 90
       50
102
RTVSPost2010PropOp46
 70
     1
102
RTVSPost2010Prop47
 90
       50
102
RTVSPost2010PropOp47
 70
     1
102
RTVSPost2010Prop48
 90
       50
102
RTVSPost2010PropOp48
 70
     1
102
RTVSPost2010Prop49
280
     0
102
RTVSPost2010PropOp49
 70
     1
102
RTVSPost2010Prop50
 90
       50
102
RTVSPost2010PropOp50
 70
     1
102
RTVSPost2010Prop51ColorIndex
 90
      256
102
RTVSPost2010Prop51ColorRGB
 90
-16777216
102
RTVSPost2010PropOp51
 70
     0
102
RTVSPost2010Prop52
140
1.0
102
RTVSPost2010PropOp52
 70
     0
102
RTVSPost2010Prop53
 90
        2
102
RTVSPost2010PropOp53
 70
     1
102
RTVSPost2010Prop54
  1
strokes_ogs.tif
102
RTVSPost2010PropOp54
 70
     1
102
RTVSPost2010Prop55
280
     0
102
RTVSPost2010PropOp55
 70
     1
102
RTVSPost2010Prop56
140
1.0
102
RTVSPost2010PropOp56
 70
     1
102
RTVSPost2010Prop57
140
1.0
102
RTVSPost2010PropOp57
 70
     1
  0
XRECORD
  5
119
102
{ACAD_REACTORS
330
118
102
}
330
118
100
AcDbXrecord
280
     1
102
RTVSPost2010Prop28
280
     0
102
RTVSPost2010PropOp28
 70
     1
102
RTVSPost2010Prop29
280
     1
102
RTVSPost2010PropOp29
 70
     1
102
RTVSPost2010Prop30
280
     1
102
RTVSPost2010PropOp30
 70
     1
102
RTVSPost2010Prop31
280
     0
102
RTVSPost2010PropOp31
 70
     1
102
RTVSPost2010Prop32
280
     0
102
RTVSPost2010PropOp32
 70
     1
102
RTVSPost2010Prop33
280
     0
102
RTVSPost2010PropOp33
 70
     1
102
RTVSPost2010Prop34
280
     0
102
RTVSPost2010PropOp34
 70
     1
102
RTVSPost2010Prop35
280
     0
102
RTVSPost2010PropOp35
 70
     1
102
RTVSPost2010Prop36
280
     0
102
RTVSPost2010PropOp36
 70
     1
102
RTVSPost2010Prop37
 90
       50
102
RTVSPost2010PropOp37
 70
     1
102
RTVSPost2010Prop38
140
0.0
102
RTVSPost2010PropOp38
 70
     1
102
RTVSPost2010Prop39
140
1.0
102
RTVSPost2010PropOp39
 70
     1
102
RTVSPost2010Prop40
 90
        0
102
RTVSPost2010PropOp40
 70
     1
102
RTVSPost2010Prop41ColorIndex
 90
       18
102
RTVSPost2010Prop41ColorRGB
 90
        0
102
RTVSPost2010PropOp41
 70
     1
102
RTVSPost2010Prop42
 90
       50
102
RTVSPost2010PropOp42
 70
     1
102
RTVSPost2010Prop43
 90
        3
102
RTVSPost2010PropOp43
 70
     1
102
RTVSPost2010Prop44ColorIndex
 90
        5
102
RTVSPost2010Prop44ColorRGB
 90
      255
102
RTVSPost2010PropOp44
 70
     1
102
RTVSPost2010Prop45
280
     0
102
RTVSPost2010PropOp45
 70
     1
102
RTVSPost2010Prop46
 90
       50
102
RTVSPost2010PropOp46
 70
     1
102
RTVSPost2010Prop47
 90
       50
102
RTVSPost2010PropOp47
 70
     1
102
RTVSPost2010Prop48
 90
       50
102
RTVSPost2010PropOp48
 70
     1
102
RTVSPost2010Prop49
280
     0
102
RTVSPost2010PropOp49
 70
     1
102
RTVSPost2010Prop50
 90
       50
102
RTVSPost2010PropOp50
 70
     1
102
RTVSPost2010Prop51ColorIndex
 90
      256
102
RTVSPost2010Prop51ColorRGB
 90
-16777216
102
RTVSPost2010PropOp51
 70
     0
102
RTVSPost2010Prop52
140
1.0
102
RTVSPost2010PropOp52
 70
     0
102
RTVSPost2010Prop53
 90
        2
102
RTVSPost2010PropOp53
 70
     1
102
RTVSPost2010Prop54
  1
strokes_ogs.tif
102
RTVSPost2010PropOp54
 70
     1
102
RTVSPost2010Prop55
280
     0
102
RTVSPost2010PropOp55
 70
     1
102
RTVSPost2010Prop56
140
1.0
102
RTVSPost2010PropOp56
 70
     1
102
RTVSPost2010Prop57
140
1.0
102
RTVSPost2010PropOp57
 70
     1
  0
XRECORD
  5
11D
102
{ACAD_REACTORS
330
11C
102
}
330
11C
100
AcDbXrecord
280
     1
102
RTVSPost2010Prop28
280
     0
102
RTVSPost2010PropOp28
 70
     1
102
RTVSPost2010Prop29
280
     1
102
RTVSPost2010PropOp29
 70
     1
102
RTVSPost2010Prop30
280
     1
102
RTVSPost2010PropOp30
 70
     1
102
RTVSPost2010Prop31
280
     0
102
RTVSPost2010PropOp31
 70
     1
102
RTVSPost2010Prop32
280
     0
102
RTVSPost2010PropOp32
 70
     1
102
RTVSPost2010Prop33
280
     0
102
RTVSPost2010PropOp33
 70
     1
102
RTVSPost2010Prop34
280
     0
102
RTVSPost2010PropOp34
 70
     1
102
RTVSPost2010Prop35
280
     0
102
RTVSPost2010PropOp35
 70
     1
102
RTVSPost2010Prop36
280
     0
102
RTVSPost2010PropOp36
 70
     1
102
RTVSPost2010Prop37
 90
       50
102
RTVSPost2010PropOp37
 70
     1
102
RTVSPost2010Prop38
140
0.0
102
RTVSPost2010PropOp38
 70
     1
102
RTVSPost2010Prop39
140
1.0
102
RTVSPost2010PropOp39
 70
     1
102
RTVSPost2010Prop40
 90
        0
102
RTVSPost2010PropOp40
 70
     1
102
RTVSPost2010Prop41ColorIndex
 90
       18
102
RTVSPost2010Prop41ColorRGB
 90
        0
102
RTVSPost2010PropOp41
 70
     1
102
RTVSPost2010Prop42
 90
       50
102
RTVSPost2010PropOp42
 70
     1
102
RTVSPost2010Prop43
 90
        3
102
RTVSPost2010PropOp43
 70
     1
102
RTVSPost2010Prop44ColorIndex
 90
        5
102
RTVSPost2010Prop44ColorRGB
 90
      255
102
RTVSPost2010PropOp44
 70
     1
102
RTVSPost2010Prop45
280
     0
102
RTVSPost2010PropOp45
 70
     1
102
RTVSPost2010Prop46
 90
       50
102
RTVSPost2010PropOp46
 70
     1
102
RTVSPost2010Prop47
 90
       50
102
RTVSPost2010PropOp47
 70
     1
102
RTVSPost2010Prop48
 90
       50
102
RTVSPost2010PropOp48
 70
     1
102
RTVSPost2010Prop49
280
     0
102
RTVSPost2010PropOp49
 70
     1
102
RTVSPost2010Prop50
 90
       50
102
RTVSPost2010PropOp50
 70
     1
102
RTVSPost2010Prop51ColorIndex
 90
      256
102
RTVSPost2010Prop51ColorRGB
 90
-16777216
102
RTVSPost2010PropOp51
 70
     0
102
RTVSPost2010Prop52
140
1.0
102
RTVSPost2010PropOp52
 70
     0
102
RTVSPost2010Prop53
 90
        2
102
RTVSPost2010PropOp53
 70
     1
102
RTVSPost2010Prop54
  1
strokes_ogs.tif
102
RTVSPost2010PropOp54
 70
     1
102
RTVSPost2010Prop55
280
     0
102
RTVSPost2010PropOp55
 70
     1
102
RTVSPost2010Prop56
140
1.0
102
RTVSPost2010PropOp56
 70
     1
102
RTVSPost2010Prop57
140
1.0
102
RTVSPost2010PropOp57
 70
     1
  0
XRECORD
  5
137
102
{ACAD_REACTORS
330
136
102
}
330
136
100
AcDbXrecord
280
     1
102
RTVSPost2010Prop28
280
     0
102
RTVSPost2010PropOp28
 70
     0
102
RTVSPost2010Prop29
280
     1
102
RTVSPost2010PropOp29
 70
     0
102
RTVSPost2010Prop30
280
     1
102
RTVSPost2010PropOp30
 70
     0
102
RTVSPost2010Prop31
280
     0
102
RTVSPost2010PropOp31
 70
     0
102
RTVSPost2010Prop32
280
     0
102
RTVSPost2010PropOp32
 70
     0
102
RTVSPost2010Prop33
280
     0
102
RTVSPost2010PropOp33
 70
     0
102
RTVSPost2010Prop34
280
     0
102
RTVSPost2010PropOp34
 70
     0
102
RTVSPost2010Prop35
280
     0
102
RTVSPost2010PropOp35
 70
     0
102
RTVSPost2010Prop36
280
     0
102
RTVSPost2010PropOp36
 70
     0
102
RTVSPost2010Prop37
 90
       50
102
RTVSPost2010PropOp37
 70
     0
102
RTVSPost2010Prop38
140
0.0
102
RTVSPost2010PropOp38
 70
     0
102
RTVSPost2010Prop39
140
1.0
102
RTVSPost2010PropOp39
 70
     0
102
RTVSPost2010Prop40
 90
        0
102
RTVSPost2010PropOp40
 70
     0
102
RTVSPost2010Prop41ColorIndex
 90
       18
102
RTVSPost2010Prop41ColorRGB
 90
        0
102
RTVSPost2010PropOp41
 70
     0
102
RTVSPost2010Prop42
 90
       50
102
RTVSPost2010PropOp42
 70
     0
102
RTVSPost2010Prop43
 90
        3
102
RTVSPost2010PropOp43
 70
     0
102
RTVSPost2010Prop44ColorIndex
 90
        5
102
RTVSPost2010Prop44ColorRGB
 90
      255
102
RTVSPost2010PropOp44
 70
     0
102
RTVSPost2010Prop45
280
     0
102
RTVSPost2010PropOp45
 70
     0
102
RTVSPost2010Prop46
 90
       50
102
RTVSPost2010PropOp46
 70
     0
102
RTVSPost2010Prop47
 90
       50
102
RTVSPost2010PropOp47
 70
     0
102
RTVSPost2010Prop48
 90
       50
102
RTVSPost2010PropOp48
 70
     0
102
RTVSPost2010Prop49
280
     0
102
RTVSPost2010PropOp49
 70
     0
102
RTVSPost2010Prop50
 90
       50
102
RTVSPost2010PropOp50
 70
     0
102
RTVSPost2010Prop51ColorIndex
 90
      256
102
RTVSPost2010Prop51ColorRGB
 90
-16777216
102
RTVSPost2010PropOp51
 70
     0
102
RTVSPost2010Prop52
140
1.0
102
RTVSPost2010PropOp52
 70
     0
102
RTVSPost2010Prop53
 90
        2
102
RTVSPost2010PropOp53
 70
     0
102
RTVSPost2010Prop54
  1
strokes_ogs.tif
102
RTVSPost2010PropOp54
 70
     0
102
RTVSPost2010Prop55
280
     0
102
RTVSPost2010PropOp55
 70
     0
102
RTVSPost2010Prop56
140
1.0
102
RTVSPost2010PropOp56
 70
     0
102
RTVSPost2010Prop57
140
1.0
102
RTVSPost2010PropOp57
 70
     0
  0
XRECORD
  5
125
102
{ACAD_REACTORS
330
124
102
}
330
124
100
AcDbXrecord
280
     1
102
RTVSPost2010Prop28
280
     0
102
RTVSPost2010PropOp28
 70
     1
102
RTVSPost2010Prop29
280
     1
102
RTVSPost2010PropOp29
 70
     1
102
RTVSPost2010Prop30
280
     1
102
RTVSPost2010PropOp30
 70
     1
102
RTVSPost2010Prop31
280
     0
102
RTVSPost2010PropOp31
 70
     1
102
RTVSPost2010Prop32
280
     0
102
RTVSPost2010PropOp32
 70
     1
102
RTVSPost2010Prop33
280
     0
102
RTVSPost2010PropOp33
 70
     1
102
RTVSPost2010Prop34
280
     0
102
RTVSPost2010PropOp34
 70
     1
102
RTVSPost2010Prop35
280
     0
102
RTVSPost2010PropOp35
 70
     1
102
RTVSPost2010Prop36
280
     0
102
RTVSPost2010PropOp36
 70
     1
102
RTVSPost2010Prop37
 90
       50
102
RTVSPost2010PropOp37
 70
     1
102
RTVSPost2010Prop38
140
0.0
102
RTVSPost2010PropOp38
 70
     1
102
RTVSPost2010Prop39
140
1.0
102
RTVSPost2010PropOp39
 70
     1
102
RTVSPost2010Prop40
 90
        0
102
RTVSPost2010PropOp40
 70
     1
102
RTVSPost2010Prop41ColorIndex
 90
       18
102
RTVSPost2010Prop41ColorRGB
 90
        0
102
RTVSPost2010PropOp41
 70
     1
102
RTVSPost2010Prop42
 90
       50
102
RTVSPost2010PropOp42
 70
     1
102
RTVSPost2010Prop43
 90
        3
102
RTVSPost2010PropOp43
 70
     1
102
RTVSPost2010Prop44ColorIndex
 90
        5
102
RTVSPost2010Prop44ColorRGB
 90
      255
102
RTVSPost2010PropOp44
 70
     1
102
RTVSPost2010Prop45
280
     0
102
RTVSPost2010PropOp45
 70
     1
102
RTVSPost2010Prop46
 90
       50
102
RTVSPost2010PropOp46
 70
     1
102
RTVSPost2010Prop47
 90
       50
102
RTVSPost2010PropOp47
 70
     1
102
RTVSPost2010Prop48
 90
       50
102
RTVSPost2010PropOp48
 70
     1
102
RTVSPost2010Prop49
280
     0
102
RTVSPost2010PropOp49
 70
     1
102
RTVSPost2010Prop50
 90
       50
102
RTVSPost2010PropOp50
 70
     1
102
RTVSPost2010Prop51ColorIndex
 90
      256
102
RTVSPost2010Prop51ColorRGB
 90
-16777216
102
RTVSPost2010PropOp51
 70
     0
102
RTVSPost2010Prop52
140
1.0
102
RTVSPost2010PropOp52
 70
     0
102
RTVSPost2010Prop53
 90
        2
102
RTVSPost2010PropOp53
 70
     1
102
RTVSPost2010Prop54
  1
strokes_ogs.tif
102
RTVSPost2010PropOp54
 70
     1
102
RTVSPost2010Prop55
280
     0
102
RTVSPost2010PropOp55
 70
     1
102
RTVSPost2010Prop56
140
1.0
102
RTVSPost2010PropOp56
 70
     1
102
RTVSPost2010Prop57
140
1.0
102
RTVSPost2010PropOp57
 70
     1
  0
XRECORD
  5
109
102
{ACAD_REACTORS
330
108
102
}
330
108
100
AcDbXrecord
280
     1
102
RTVSPost2010Prop28
280
     0
102
RTVSPost2010PropOp28
 70
     1
102
RTVSPost2010Prop29
280
     1
102
RTVSPost2010PropOp29
 70
     1
102
RTVSPost2010Prop30
280
     1
102
RTVSPost2010PropOp30
 70
     1
102
RTVSPost2010Prop31
280
     0
102
RTVSPost2010PropOp31
 70
     1
102
RTVSPost2010Prop32
280
     0
102
RTVSPost2010PropOp32
 70
     1
102
RTVSPost2010Prop33
280
     0
102
RTVSPost2010PropOp33
 70
     1
102
RTVSPost2010Prop34
280
     0
102
RTVSPost2010PropOp34
 70
     1
102
RTVSPost2010Prop35
280
     0
102
RTVSPost2010PropOp35
 70
     1
102
RTVSPost2010Prop36
280
     0
102
RTVSPost2010PropOp36
 70
     1
102
RTVSPost2010Prop37
 90
       50
102
RTVSPost2010PropOp37
 70
     1
102
RTVSPost2010Prop38
140
0.0
102
RTVSPost2010PropOp38
 70
     1
102
RTVSPost2010Prop39
140
1.0
102
RTVSPost2010PropOp39
 70
     1
102
RTVSPost2010Prop40
 90
        0
102
RTVSPost2010PropOp40
 70
     1
102
RTVSPost2010Prop41ColorIndex
 90
       18
102
RTVSPost2010Prop41ColorRGB
 90
        0
102
RTVSPost2010PropOp41
 70
     1
102
RTVSPost2010Prop42
 90
       50
102
RTVSPost2010PropOp42
 70
     1
102
RTVSPost2010Prop43
 90
        3
102
RTVSPost2010PropOp43
 70
     1
102
RTVSPost2010Prop44ColorIndex
 90
        5
102
RTVSPost2010Prop44ColorRGB
 90
      255
102
RTVSPost2010PropOp44
 70
     1
102
RTVSPost2010Prop45
280
     0
102
RTVSPost2010PropOp45
 70
     1
102
RTVSPost2010Prop46
 90
       50
102
RTVSPost2010PropOp46
 70
     1
102
RTVSPost2010Prop47
 90
       50
102
RTVSPost2010PropOp47
 70
     1
102
RTVSPost2010Prop48
 90
       50
102
RTVSPost2010PropOp48
 70
     1
102
RTVSPost2010Prop49
280
     0
102
RTVSPost2010PropOp49
 70
     1
102
RTVSPost2010Prop50
 90
       50
102
RTVSPost2010PropOp50
 70
     1
102
RTVSPost2010Prop51ColorIndex
 90
      256
102
RTVSPost2010Prop51ColorRGB
 90
-16777216
102
RTVSPost2010PropOp51
 70
     0
102
RTVSPost2010Prop52
140
1.0
102
RTVSPost2010PropOp52
 70
     0
102
RTVSPost2010Prop53
 90
        2
102
RTVSPost2010PropOp53
 70
     1
102
RTVSPost2010Prop54
  1
strokes_ogs.tif
102
RTVSPost2010PropOp54
 70
     1
102
RTVSPost2010Prop55
280
     0
102
RTVSPost2010PropOp55
 70
     1
102
RTVSPost2010Prop56
140
1.0
102
RTVSPost2010PropOp56
 70
     1
102
RTVSPost2010Prop57
140
1.0
102
RTVSPost2010PropOp57
 70
     1
  0
XRECORD
  5
10B
102
{ACAD_REACTORS
330
10A
102
}
330
10A
100
AcDbXrecord
280
     1
102
RTVSPost2010Prop28
280
     0
102
RTVSPost2010PropOp28
 70
     1
102
RTVSPost2010Prop29
280
     1
102
RTVSPost2010PropOp29
 70
     1
102
RTVSPost2010Prop30
280
     1
102
RTVSPost2010PropOp30
 70
     1
102
RTVSPost2010Prop31
280
     0
102
RTVSPost2010PropOp31
 70
     1
102
RTVSPost2010Prop32
280
     0
102
RTVSPost2010PropOp32
 70
     1
102
RTVSPost2010Prop33
280
     0
102
RTVSPost2010PropOp33
 70
     1
102
RTVSPost2010Prop34
280
     0
102
RTVSPost2010PropOp34
 70
     1
102
RTVSPost2010Prop35
280
     0
102
RTVSPost2010PropOp35
 70
     1
102
RTVSPost2010Prop36
280
     0
102
RTVSPost2010PropOp36
 70
     1
102
RTVSPost2010Prop37
 90
       50
102
RTVSPost2010PropOp37
 70
     1
102
RTVSPost2010Prop38
140
0.0
102
RTVSPost2010PropOp38
 70
     1
102
RTVSPost2010Prop39
140
1.0
102
RTVSPost2010PropOp39
 70
     1
102
RTVSPost2010Prop40
 90
        0
102
RTVSPost2010PropOp40
 70
     1
102
RTVSPost2010Prop41ColorIndex
 90
       18
102
RTVSPost2010Prop41ColorRGB
 90
        0
102
RTVSPost2010PropOp41
 70
     1
102
RTVSPost2010Prop42
 90
       50
102
RTVSPost2010PropOp42
 70
     1
102
RTVSPost2010Prop43
 90
        3
102
RTVSPost2010PropOp43
 70
     1
102
RTVSPost2010Prop44ColorIndex
 90
        5
102
RTVSPost2010Prop44ColorRGB
 90
      255
102
RTVSPost2010PropOp44
 70
     1
102
RTVSPost2010Prop45
280
     0
102
RTVSPost2010PropOp45
 70
     1
102
RTVSPost2010Prop46
 90
       50
102
RTVSPost2010PropOp46
 70
     1
102
RTVSPost2010Prop47
 90
       50
102
RTVSPost2010PropOp47
 70
     1
102
RTVSPost2010Prop48
 90
       50
102
RTVSPost2010PropOp48
 70
     1
102
RTVSPost2010Prop49
280
     0
102
RTVSPost2010PropOp49
 70
     1
102
RTVSPost2010Prop50
 90
       50
102
RTVSPost2010PropOp50
 70
     1
102
RTVSPost2010Prop51ColorIndex
 90
      256
102
RTVSPost2010Prop51ColorRGB
 90
-16777216
102
RTVSPost2010PropOp51
 70
     0
102
RTVSPost2010Prop52
140
1.0
102
RTVSPost2010PropOp52
 70
     0
102
RTVSPost2010Prop53
 90
        2
102
RTVSPost2010PropOp53
 70
     1
102
RTVSPost2010Prop54
  1
strokes_ogs.tif
102
RTVSPost2010PropOp54
 70
     1
102
RTVSPost2010Prop55
280
     0
102
RTVSPost2010PropOp55
 70
     1
102
RTVSPost2010Prop56
140
1.0
102
RTVSPost2010PropOp56
 70
     1
102
RTVSPost2010Prop57
140
1.0
102
RTVSPost2010PropOp57
 70
     1
  0
XRECORD
  5
10D
102
{ACAD_REACTORS
330
10C
102
}
330
10C
100
AcDbXrecord
280
     1
102
RTVSPost2010Prop28
280
     0
102
RTVSPost2010PropOp28
 70
     1
102
RTVSPost2010Prop29
280
     1
102
RTVSPost2010PropOp29
 70
     1
102
RTVSPost2010Prop30
280
     1
102
RTVSPost2010PropOp30
 70
     1
102
RTVSPost2010Prop31
280
     0
102
RTVSPost2010PropOp31
 70
     1
102
RTVSPost2010Prop32
280
     0
102
RTVSPost2010PropOp32
 70
     1
102
RTVSPost2010Prop33
280
     0
102
RTVSPost2010PropOp33
 70
     1
102
RTVSPost2010Prop34
280
     0
102
RTVSPost2010PropOp34
 70
     1
102
RTVSPost2010Prop35
280
     0
102
RTVSPost2010PropOp35
 70
     1
102
RTVSPost2010Prop36
280
     0
102
RTVSPost2010PropOp36
 70
     1
102
RTVSPost2010Prop37
 90
       50
102
RTVSPost2010PropOp37
 70
     1
102
RTVSPost2010Prop38
140
0.0
102
RTVSPost2010PropOp38
 70
     1
102
RTVSPost2010Prop39
140
1.0
102
RTVSPost2010PropOp39
 70
     1
102
RTVSPost2010Prop40
 90
        0
102
RTVSPost2010PropOp40
 70
     1
102
RTVSPost2010Prop41ColorIndex
 90
       18
102
RTVSPost2010Prop41ColorRGB
 90
        0
102
RTVSPost2010PropOp41
 70
     1
102
RTVSPost2010Prop42
 90
       50
102
RTVSPost2010PropOp42
 70
     1
102
RTVSPost2010Prop43
 90
        3
102
RTVSPost2010PropOp43
 70
     1
102
RTVSPost2010Prop44ColorIndex
 90
        5
102
RTVSPost2010Prop44ColorRGB
 90
      255
102
RTVSPost2010PropOp44
 70
     1
102
RTVSPost2010Prop45
280
     0
102
RTVSPost2010PropOp45
 70
     1
102
RTVSPost2010Prop46
 90
       50
102
RTVSPost2010PropOp46
 70
     1
102
RTVSPost2010Prop47
 90
       50
102
RTVSPost2010PropOp47
 70
     1
102
RTVSPost2010Prop48
 90
       50
102
RTVSPost2010PropOp48
 70
     1
102
RTVSPost2010Prop49
280
     0
102
RTVSPost2010PropOp49
 70
     1
102
RTVSPost2010Prop50
 90
       50
102
RTVSPost2010PropOp50
 70
     1
102
RTVSPost2010Prop51ColorIndex
 90
      256
102
RTVSPost2010Prop51ColorRGB
 90
-16777216
102
RTVSPost2010PropOp51
 70
     0
102
RTVSPost2010Prop52
140
1.0
102
RTVSPost2010PropOp52
 70
     0
102
RTVSPost2010Prop53
 90
        2
102
RTVSPost2010PropOp53
 70
     1
102
RTVSPost2010Prop54
  1
strokes_ogs.tif
102
RTVSPost2010PropOp54
 70
     1
102
RTVSPost2010Prop55
280
     0
102
RTVSPost2010PropOp55
 70
     1
102
RTVSPost2010Prop56
140
1.0
102
RTVSPost2010PropOp56
 70
     1
102
RTVSPost2010Prop57
140
1.0
102
RTVSPost2010PropOp57
 70
     1
  0
XRECORD
  5
10F
102
{ACAD_REACTORS
330
10E
102
}
330
10E
100
AcDbXrecord
280
     1
102
RTVSPost2010Prop28
280
     0
102
RTVSPost2010PropOp28
 70
     1
102
RTVSPost2010Prop29
280
     1
102
RTVSPost2010PropOp29
 70
     1
102
RTVSPost2010Prop30
280
     1
102
RTVSPost2010PropOp30
 70
     1
102
RTVSPost2010Prop31
280
     0
102
RTVSPost2010PropOp31
 70
     1
102
RTVSPost2010Prop32
280
     0
102
RTVSPost2010PropOp32
 70
     1
102
RTVSPost2010Prop33
280
     0
102
RTVSPost2010PropOp33
 70
     1
102
RTVSPost2010Prop34
280
     0
102
RTVSPost2010PropOp34
 70
     1
102
RTVSPost2010Prop35
280
     0
102
RTVSPost2010PropOp35
 70
     1
102
RTVSPost2010Prop36
280
     0
102
RTVSPost2010PropOp36
 70
     1
102
RTVSPost2010Prop37
 90
       50
102
RTVSPost2010PropOp37
 70
     1
102
RTVSPost2010Prop38
140
0.0
102
RTVSPost2010PropOp38
 70
     1
102
RTVSPost2010Prop39
140
1.0
102
RTVSPost2010PropOp39
 70
     1
102
RTVSPost2010Prop40
 90
        0
102
RTVSPost2010PropOp40
 70
     1
102
RTVSPost2010Prop41ColorIndex
 90
       18
102
RTVSPost2010Prop41ColorRGB
 90
        0
102
RTVSPost2010PropOp41
 70
     1
102
RTVSPost2010Prop42
 90
       50
102
RTVSPost2010PropOp42
 70
     1
102
RTVSPost2010Prop43
 90
        3
102
RTVSPost2010PropOp43
 70
     1
102
RTVSPost2010Prop44ColorIndex
 90
        5
102
RTVSPost2010Prop44ColorRGB
 90
      255
102
RTVSPost2010PropOp44
 70
     1
102
RTVSPost2010Prop45
280
     0
102
RTVSPost2010PropOp45
 70
     1
102
RTVSPost2010Prop46
 90
       50
102
RTVSPost2010PropOp46
 70
     1
102
RTVSPost2010Prop47
 90
       50
102
RTVSPost2010PropOp47
 70
     1
102
RTVSPost2010Prop48
 90
       50
102
RTVSPost2010PropOp48
 70
     1
102
RTVSPost2010Prop49
280
     0
102
RTVSPost2010PropOp49
 70
     1
102
RTVSPost2010Prop50
 90
       50
102
RTVSPost2010PropOp50
 70
     1
102
RTVSPost2010Prop51ColorIndex
 90
      256
102
RTVSPost2010Prop51ColorRGB
 90
-16777216
102
RTVSPost2010PropOp51
 70
     0
102
RTVSPost2010Prop52
140
1.0
102
RTVSPost2010PropOp52
 70
     0
102
RTVSPost2010Prop53
 90
        2
102
RTVSPost2010PropOp53
 70
     1
102
RTVSPost2010Prop54
  1
strokes_ogs.tif
102
RTVSPost2010PropOp54
 70
     1
102
RTVSPost2010Prop55
280
     0
102
RTVSPost2010PropOp55
 70
     1
102
RTVSPost2010Prop56
140
1.0
102
RTVSPost2010PropOp56
 70
     1
102
RTVSPost2010Prop57
140
1.0
102
RTVSPost2010PropOp57
 70
     1
  0
XRECORD
  5
117
102
{ACAD_REACTORS
330
116
102
}
330
116
100
AcDbXrecord
280
     1
102
RTVSPost2010Prop28
280
     0
102
RTVSPost2010PropOp28
 70
     1
102
RTVSPost2010Prop29
280
     1
102
RTVSPost2010PropOp29
 70
     1
102
RTVSPost2010Prop30
280
     1
102
RTVSPost2010PropOp30
 70
     1
102
RTVSPost2010Prop31
280
     0
102
RTVSPost2010PropOp31
 70
     1
102
RTVSPost2010Prop32
280
     0
102
RTVSPost2010PropOp32
 70
     1
102
RTVSPost2010Prop33
280
     0
102
RTVSPost2010PropOp33
 70
     1
102
RTVSPost2010Prop34
280
     0
102
RTVSPost2010PropOp34
 70
     1
102
RTVSPost2010Prop35
280
     0
102
RTVSPost2010PropOp35
 70
     1
102
RTVSPost2010Prop36
280
     0
102
RTVSPost2010PropOp36
 70
     1
102
RTVSPost2010Prop37
 90
       50
102
RTVSPost2010PropOp37
 70
     1
102
RTVSPost2010Prop38
140
0.0
102
RTVSPost2010PropOp38
 70
     1
102
RTVSPost2010Prop39
140
1.0
102
RTVSPost2010PropOp39
 70
     1
102
RTVSPost2010Prop40
 90
        0
102
RTVSPost2010PropOp40
 70
     1
102
RTVSPost2010Prop41ColorIndex
 90
       18
102
RTVSPost2010Prop41ColorRGB
 90
        0
102
RTVSPost2010PropOp41
 70
     1
102
RTVSPost2010Prop42
 90
       50
102
RTVSPost2010PropOp42
 70
     1
102
RTVSPost2010Prop43
 90
        3
102
RTVSPost2010PropOp43
 70
     1
102
RTVSPost2010Prop44ColorIndex
 90
        5
102
RTVSPost2010Prop44ColorRGB
 90
      255
102
RTVSPost2010PropOp44
 70
     1
102
RTVSPost2010Prop45
280
     0
102
RTVSPost2010PropOp45
 70
     1
102
RTVSPost2010Prop46
 90
       50
102
RTVSPost2010PropOp46
 70
     1
102
RTVSPost2010Prop47
 90
       50
102
RTVSPost2010PropOp47
 70
     1
102
RTVSPost2010Prop48
 90
       50
102
RTVSPost2010PropOp48
 70
     1
102
RTVSPost2010Prop49
280
     0
102
RTVSPost2010PropOp49
 70
     1
102
RTVSPost2010Prop50
 90
       50
102
RTVSPost2010PropOp50
 70
     1
102
RTVSPost2010Prop51ColorIndex
 90
      256
102
RTVSPost2010Prop51ColorRGB
 90
-16777216
102
RTVSPost2010PropOp51
 70
     0
102
RTVSPost2010Prop52
140
1.0
102
RTVSPost2010PropOp52
 70
     0
102
RTVSPost2010Prop53
 90
        2
102
RTVSPost2010PropOp53
 70
     1
102
RTVSPost2010Prop54
  1
strokes_ogs.tif
102
RTVSPost2010PropOp54
 70
     1
102
RTVSPost2010Prop55
280
     0
102
RTVSPost2010PropOp55
 70
     1
102
RTVSPost2010Prop56
140
1.0
102
RTVSPost2010PropOp56
 70
     1
102
RTVSPost2010Prop57
140
1.0
102
RTVSPost2010PropOp57
 70
     1
  0
XRECORD
  5
133
102
{ACAD_REACTORS
330
132
102
}
330
132
100
AcDbXrecord
280
     1
102
RTVSPost2010Prop28
280
     0
102
RTVSPost2010PropOp28
 70
     0
102
RTVSPost2010Prop29
280
     1
102
RTVSPost2010PropOp29
 70
     0
102
RTVSPost2010Prop30
280
     1
102
RTVSPost2010PropOp30
 70
     0
102
RTVSPost2010Prop31
280
     0
102
RTVSPost2010PropOp31
 70
     0
102
RTVSPost2010Prop32
280
     0
102
RTVSPost2010PropOp32
 70
     0
102
RTVSPost2010Prop33
280
     0
102
RTVSPost2010PropOp33
 70
     0
102
RTVSPost2010Prop34
280
     0
102
RTVSPost2010PropOp34
 70
     0
102
RTVSPost2010Prop35
280
     0
102
RTVSPost2010PropOp35
 70
     0
102
RTVSPost2010Prop36
280
     0
102
RTVSPost2010PropOp36
 70
     0
102
RTVSPost2010Prop37
 90
       50
102
RTVSPost2010PropOp37
 70
     0
102
RTVSPost2010Prop38
140
0.0
102
RTVSPost2010PropOp38
 70
     0
102
RTVSPost2010Prop39
140
1.0
102
RTVSPost2010PropOp39
 70
     0
102
RTVSPost2010Prop40
 90
        0
102
RTVSPost2010PropOp40
 70
     0
102
RTVSPost2010Prop41ColorIndex
 90
       18
102
RTVSPost2010Prop41ColorRGB
 90
        0
102
RTVSPost2010PropOp41
 70
     0
102
RTVSPost2010Prop42
 90
       50
102
RTVSPost2010PropOp42
 70
     0
102
RTVSPost2010Prop43
 90
        3
102
RTVSPost2010PropOp43
 70
     0
102
RTVSPost2010Prop44ColorIndex
 90
        5
102
RTVSPost2010Prop44ColorRGB
 90
      255
102
RTVSPost2010PropOp44
 70
     0
102
RTVSPost2010Prop45
280
     0
102
RTVSPost2010PropOp45
 70
     0
102
RTVSPost2010Prop46
 90
       50
102
RTVSPost2010PropOp46
 70
     0
102
RTVSPost2010Prop47
 90
       50
102
RTVSPost2010PropOp47
 70
     0
102
RTVSPost2010Prop48
 90
       50
102
RTVSPost2010PropOp48
 70
     0
102
RTVSPost2010Prop49
280
     0
102
RTVSPost2010PropOp49
 70
     0
102
RTVSPost2010Prop50
 90
       50
102
RTVSPost2010PropOp50
 70
     0
102
RTVSPost2010Prop51ColorIndex
 90
      256
102
RTVSPost2010Prop51ColorRGB
 90
-16777216
102
RTVSPost2010PropOp51
 70
     0
102
RTVSPost2010Prop52
140
1.0
102
RTVSPost2010PropOp52
 70
     0
102
RTVSPost2010Prop53
 90
        2
102
RTVSPost2010PropOp53
 70
     0
102
RTVSPost2010Prop54
  1
strokes_ogs.tif
102
RTVSPost2010PropOp54
 70
     0
102
RTVSPost2010Prop55
280
     0
102
RTVSPost2010PropOp55
 70
     0
102
RTVSPost2010Prop56
140
1.0
102
RTVSPost2010PropOp56
 70
     0
102
RTVSPost2010Prop57
140
1.0
102
RTVSPost2010PropOp57
 70
     0
  0
XRECORD
  5
123
102
{ACAD_REACTORS
330
122
102
}
330
122
100
AcDbXrecord
280
     1
102
RTVSPost2010Prop28
280
     0
102
RTVSPost2010PropOp28
 70
     1
102
RTVSPost2010Prop29
280
     1
102
RTVSPost2010PropOp29
 70
     1
102
RTVSPost2010Prop30
280
     1
102
RTVSPost2010PropOp30
 70
     1
102
RTVSPost2010Prop31
280
     0
102
RTVSPost2010PropOp31
 70
     1
102
RTVSPost2010Prop32
280
     0
102
RTVSPost2010PropOp32
 70
     1
102
RTVSPost2010Prop33
280
     0
102
RTVSPost2010PropOp33
 70
     1
102
RTVSPost2010Prop34
280
     0
102
RTVSPost2010PropOp34
 70
     1
102
RTVSPost2010Prop35
280
     0
102
RTVSPost2010PropOp35
 70
     1
102
RTVSPost2010Prop36
280
     0
102
RTVSPost2010PropOp36
 70
     1
102
RTVSPost2010Prop37
 90
       50
102
RTVSPost2010PropOp37
 70
     1
102
RTVSPost2010Prop38
140
0.0
102
RTVSPost2010PropOp38
 70
     1
102
RTVSPost2010Prop39
140
1.0
102
RTVSPost2010PropOp39
 70
     1
102
RTVSPost2010Prop40
 90
        0
102
RTVSPost2010PropOp40
 70
     1
102
RTVSPost2010Prop41ColorIndex
 90
       18
102
RTVSPost2010Prop41ColorRGB
 90
        0
102
RTVSPost2010PropOp41
 70
     1
102
RTVSPost2010Prop42
 90
       50
102
RTVSPost2010PropOp42
 70
     1
102
RTVSPost2010Prop43
 90
        3
102
RTVSPost2010PropOp43
 70
     1
102
RTVSPost2010Prop44ColorIndex
 90
        5
102
RTVSPost2010Prop44ColorRGB
 90
      255
102
RTVSPost2010PropOp44
 70
     1
102
RTVSPost2010Prop45
280
     0
102
RTVSPost2010PropOp45
 70
     1
102
RTVSPost2010Prop46
 90
       50
102
RTVSPost2010PropOp46
 70
     1
102
RTVSPost2010Prop47
 90
       50
102
RTVSPost2010PropOp47
 70
     1
102
RTVSPost2010Prop48
 90
       50
102
RTVSPost2010PropOp48
 70
     1
102
RTVSPost2010Prop49
280
     0
102
RTVSPost2010PropOp49
 70
     1
102
RTVSPost2010Prop50
 90
       50
102
RTVSPost2010PropOp50
 70
     1
102
RTVSPost2010Prop51ColorIndex
 90
      256
102
RTVSPost2010Prop51ColorRGB
 90
-16777216
102
RTVSPost2010PropOp51
 70
     0
102
RTVSPost2010Prop52
140
1.0
102
RTVSPost2010PropOp52
 70
     0
102
RTVSPost2010Prop53
 90
        2
102
RTVSPost2010PropOp53
 70
     1
102
RTVSPost2010Prop54
  1
strokes_ogs.tif
102
RTVSPost2010PropOp54
 70
     1
102
RTVSPost2010Prop55
280
     0
102
RTVSPost2010PropOp55
 70
     1
102
RTVSPost2010Prop56
140
1.0
102
RTVSPost2010PropOp56
 70
     1
102
RTVSPost2010Prop57
140
1.0
102
RTVSPost2010PropOp57
 70
     1
  0
XRECORD
  5
135
102
{ACAD_REACTORS
330
134
102
}
330
134
100
AcDbXrecord
280
     1
102
RTVSPost2010Prop28
280
     0
102
RTVSPost2010PropOp28
 70
     0
102
RTVSPost2010Prop29
280
     1
102
RTVSPost2010PropOp29
 70
     0
102
RTVSPost2010Prop30
280
     1
102
RTVSPost2010PropOp30
 70
     0
102
RTVSPost2010Prop31
280
     0
102
RTVSPost2010PropOp31
 70
     0
102
RTVSPost2010Prop32
280
     0
102
RTVSPost2010PropOp32
 70
     0
102
RTVSPost2010Prop33
280
     0
102
RTVSPost2010PropOp33
 70
     0
102
RTVSPost2010Prop34
280
     0
102
RTVSPost2010PropOp34
 70
     0
102
RTVSPost2010Prop35
280
     0
102
RTVSPost2010PropOp35
 70
     0
102
RTVSPost2010Prop36
280
     0
102
RTVSPost2010PropOp36
 70
     0
102
RTVSPost2010Prop37
 90
       50
102
RTVSPost2010PropOp37
 70
     0
102
RTVSPost2010Prop38
140
0.0
102
RTVSPost2010PropOp38
 70
     0
102
RTVSPost2010Prop39
140
1.0
102
RTVSPost2010PropOp39
 70
     0
102
RTVSPost2010Prop40
 90
        0
102
RTVSPost2010PropOp40
 70
     0
102
RTVSPost2010Prop41ColorIndex
 90
       18
102
RTVSPost2010Prop41ColorRGB
 90
        0
102
RTVSPost2010PropOp41
 70
     0
102
RTVSPost2010Prop42
 90
       50
102
RTVSPost2010PropOp42
 70
     0
102
RTVSPost2010Prop43
 90
        3
102
RTVSPost2010PropOp43
 70
     0
102
RTVSPost2010Prop44ColorIndex
 90
        5
102
RTVSPost2010Prop44ColorRGB
 90
      255
102
RTVSPost2010PropOp44
 70
     0
102
RTVSPost2010Prop45
280
     0
102
RTVSPost2010PropOp45
 70
     0
102
RTVSPost2010Prop46
 90
       50
102
RTVSPost2010PropOp46
 70
     0
102
RTVSPost2010Prop47
 90
       50
102
RTVSPost2010PropOp47
 70
     0
102
RTVSPost2010Prop48
 90
       50
102
RTVSPost2010PropOp48
 70
     0
102
RTVSPost2010Prop49
280
     0
102
RTVSPost2010PropOp49
 70
     0
102
RTVSPost2010Prop50
 90
       50
102
RTVSPost2010PropOp50
 70
     0
102
RTVSPost2010Prop51ColorIndex
 90
      256
102
RTVSPost2010Prop51ColorRGB
 90
-16777216
102
RTVSPost2010PropOp51
 70
     0
102
RTVSPost2010Prop52
140
1.0
102
RTVSPost2010PropOp52
 70
     0
102
RTVSPost2010Prop53
 90
        2
102
RTVSPost2010PropOp53
 70
     0
102
RTVSPost2010Prop54
  1
strokes_ogs.tif
102
RTVSPost2010PropOp54
 70
     0
102
RTVSPost2010Prop55
280
     0
102
RTVSPost2010PropOp55
 70
     0
102
RTVSPost2010Prop56
140
1.0
102
RTVSPost2010PropOp56
 70
     0
102
RTVSPost2010Prop57
140
1.0
102
RTVSPost2010PropOp57
 70
     0
  0
XRECORD
  5
11B
102
{ACAD_REACTORS
330
11A
102
}
330
11A
100
AcDbXrecord
280
     1
102
RTVSPost2010Prop28
280
     0
102
RTVSPost2010PropOp28
 70
     1
102
RTVSPost2010Prop29
280
     1
102
RTVSPost2010PropOp29
 70
     1
102
RTVSPost2010Prop30
280
     1
102
RTVSPost2010PropOp30
 70
     1
102
RTVSPost2010Prop31
280
     0
102
RTVSPost2010PropOp31
 70
     1
102
RTVSPost2010Prop32
280
     0
102
RTVSPost2010PropOp32
 70
     1
102
RTVSPost2010Prop33
280
     0
102
RTVSPost2010PropOp33
 70
     1
102
RTVSPost2010Prop34
280
     0
102
RTVSPost2010PropOp34
 70
     1
102
RTVSPost2010Prop35
280
     0
102
RTVSPost2010PropOp35
 70
     1
102
RTVSPost2010Prop36
280
     0
102
RTVSPost2010PropOp36
 70
     1
102
RTVSPost2010Prop37
 90
       50
102
RTVSPost2010PropOp37
 70
     1
102
RTVSPost2010Prop38
140
0.0
102
RTVSPost2010PropOp38
 70
     1
102
RTVSPost2010Prop39
140
1.0
102
RTVSPost2010PropOp39
 70
     1
102
RTVSPost2010Prop40
 90
        0
102
RTVSPost2010PropOp40
 70
     1
102
RTVSPost2010Prop41ColorIndex
 90
       18
102
RTVSPost2010Prop41ColorRGB
 90
        0
102
RTVSPost2010PropOp41
 70
     1
102
RTVSPost2010Prop42
 90
       50
102
RTVSPost2010PropOp42
 70
     1
102
RTVSPost2010Prop43
 90
        3
102
RTVSPost2010PropOp43
 70
     1
102
RTVSPost2010Prop44ColorIndex
 90
        5
102
RTVSPost2010Prop44ColorRGB
 90
      255
102
RTVSPost2010PropOp44
 70
     1
102
RTVSPost2010Prop45
280
     0
102
RTVSPost2010PropOp45
 70
     1
102
RTVSPost2010Prop46
 90
       50
102
RTVSPost2010PropOp46
 70
     1
102
RTVSPost2010Prop47
 90
       50
102
RTVSPost2010PropOp47
 70
     1
102
RTVSPost2010Prop48
 90
       50
102
RTVSPost2010PropOp48
 70
     1
102
RTVSPost2010Prop49
280
     0
102
RTVSPost2010PropOp49
 70
     1
102
RTVSPost2010Prop50
 90
       50
102
RTVSPost2010PropOp50
 70
     1
102
RTVSPost2010Prop51ColorIndex
 90
      256
102
RTVSPost2010Prop51ColorRGB
 90
-16777216
102
RTVSPost2010PropOp51
 70
     0
102
RTVSPost2010Prop52
140
1.0
102
RTVSPost2010PropOp52
 70
     0
102
RTVSPost2010Prop53
 90
        2
102
RTVSPost2010PropOp53
 70
     1
102
RTVSPost2010Prop54
  1
strokes_ogs.tif
102
RTVSPost2010PropOp54
 70
     1
102
RTVSPost2010Prop55
280
     0
102
RTVSPost2010PropOp55
 70
     1
102
RTVSPost2010Prop56
140
1.0
102
RTVSPost2010PropOp56
 70
     1
102
RTVSPost2010Prop57
140
1.0
102
RTVSPost2010PropOp57
 70
     1
  0
XRECORD
  5
131
102
{ACAD_REACTORS
330
130
102
}
330
130
100
AcDbXrecord
280
     1
102
RTVSPost2010Prop28
280
     0
102
RTVSPost2010PropOp28
 70
     1
102
RTVSPost2010Prop29
280
     1
102
RTVSPost2010PropOp29
 70
     1
102
RTVSPost2010Prop30
280
     1
102
RTVSPost2010PropOp30
 70
     1
102
RTVSPost2010Prop31
280
     0
102
RTVSPost2010PropOp31
 70
     1
102
RTVSPost2010Prop32
280
     0
102
RTVSPost2010PropOp32
 70
     1
102
RTVSPost2010Prop33
280
     0
102
RTVSPost2010PropOp33
 70
     1
102
RTVSPost2010Prop34
280
     0
102
RTVSPost2010PropOp34
 70
     1
102
RTVSPost2010Prop35
280
     0
102
RTVSPost2010PropOp35
 70
     1
102
RTVSPost2010Prop36
280
     0
102
RTVSPost2010PropOp36
 70
     1
102
RTVSPost2010Prop37
 90
       50
102
RTVSPost2010PropOp37
 70
     1
102
RTVSPost2010Prop38
140
0.0
102
RTVSPost2010PropOp38
 70
     1
102
RTVSPost2010Prop39
140
1.0
102
RTVSPost2010PropOp39
 70
     1
102
RTVSPost2010Prop40
 90
        0
102
RTVSPost2010PropOp40
 70
     1
102
RTVSPost2010Prop41ColorIndex
 90
       18
102
RTVSPost2010Prop41ColorRGB
 90
        0
102
RTVSPost2010PropOp41
 70
     1
102
RTVSPost2010Prop42
 90
       50
102
RTVSPost2010PropOp42
 70
     1
102
RTVSPost2010Prop43
 90
        3
102
RTVSPost2010PropOp43
 70
     1
102
RTVSPost2010Prop44ColorIndex
 90
        5
102
RTVSPost2010Prop44ColorRGB
 90
      255
102
RTVSPost2010PropOp44
 70
     1
102
RTVSPost2010Prop45
280
     0
102
RTVSPost2010PropOp45
 70
     1
102
RTVSPost2010Prop46
 90
       50
102
RTVSPost2010PropOp46
 70
     1
102
RTVSPost2010Prop47
 90
       50
102
RTVSPost2010PropOp47
 70
     1
102
RTVSPost2010Prop48
 90
       50
102
RTVSPost2010PropOp48
 70
     1
102
RTVSPost2010Prop49
280
     0
102
RTVSPost2010PropOp49
 70
     1
102
RTVSPost2010Prop50
 90
       50
102
RTVSPost2010PropOp50
 70
     1
102
RTVSPost2010Prop51ColorIndex
 90
      256
102
RTVSPost2010Prop51ColorRGB
 90
-16777216
102
RTVSPost2010PropOp51
 70
     0
102
RTVSPost2010Prop52
140
1.0
102
RTVSPost2010PropOp52
 70
     0
102
RTVSPost2010Prop53
 90
        2
102
RTVSPost2010PropOp53
 70
     1
102
RTVSPost2010Prop54
  1
strokes_ogs.tif
102
RTVSPost2010PropOp54
 70
     1
102
RTVSPost2010Prop55
280
     0
102
RTVSPost2010PropOp55
 70
     1
102
RTVSPost2010Prop56
140
1.0
102
RTVSPost2010PropOp56
 70
     1
102
RTVSPost2010Prop57
140
1.0
102
RTVSPost2010PropOp57
 70
     1
  0
XRECORD
  5
12F
102
{ACAD_REACTORS
330
12E
102
}
330
12E
100
AcDbXrecord
280
     1
102
RTVSPost2010Prop28
280
     0
102
RTVSPost2010PropOp28
 70
     1
102
RTVSPost2010Prop29
280
     1
102
RTVSPost2010PropOp29
 70
     1
102
RTVSPost2010Prop30
280
     1
102
RTVSPost2010PropOp30
 70
     1
102
RTVSPost2010Prop31
280
     0
102
RTVSPost2010PropOp31
 70
     1
102
RTVSPost2010Prop32
280
     0
102
RTVSPost2010PropOp32
 70
     1
102
RTVSPost2010Prop33
280
     0
102
RTVSPost2010PropOp33
 70
     1
102
RTVSPost2010Prop34
280
     0
102
RTVSPost2010PropOp34
 70
     1
102
RTVSPost2010Prop35
280
     0
102
RTVSPost2010PropOp35
 70
     1
102
RTVSPost2010Prop36
280
     0
102
RTVSPost2010PropOp36
 70
     1
102
RTVSPost2010Prop37
 90
       50
102
RTVSPost2010PropOp37
 70
     1
102
RTVSPost2010Prop38
140
0.0
102
RTVSPost2010PropOp38
 70
     1
102
RTVSPost2010Prop39
140
1.0
102
RTVSPost2010PropOp39
 70
     1
102
RTVSPost2010Prop40
 90
        0
102
RTVSPost2010PropOp40
 70
     1
102
RTVSPost2010Prop41ColorIndex
 90
       18
102
RTVSPost2010Prop41ColorRGB
 90
        0
102
RTVSPost2010PropOp41
 70
     1
102
RTVSPost2010Prop42
 90
       50
102
RTVSPost2010PropOp42
 70
     1
102
RTVSPost2010Prop43
 90
        3
102
RTVSPost2010PropOp43
 70
     1
102
RTVSPost2010Prop44ColorIndex
 90
        5
102
RTVSPost2010Prop44ColorRGB
 90
      255
102
RTVSPost2010PropOp44
 70
     1
102
RTVSPost2010Prop45
280
     0
102
RTVSPost2010PropOp45
 70
     1
102
RTVSPost2010Prop46
 90
       50
102
RTVSPost2010PropOp46
 70
     1
102
RTVSPost2010Prop47
 90
       50
102
RTVSPost2010PropOp47
 70
     1
102
RTVSPost2010Prop48
 90
       50
102
RTVSPost2010PropOp48
 70
     1
102
RTVSPost2010Prop49
280
     0
102
RTVSPost2010PropOp49
 70
     1
102
RTVSPost2010Prop50
 90
       50
102
RTVSPost2010PropOp50
 70
     1
102
RTVSPost2010Prop51ColorIndex
 90
      256
102
RTVSPost2010Prop51ColorRGB
 90
-16777216
102
RTVSPost2010PropOp51
 70
     0
102
RTVSPost2010Prop52
140
1.0
102
RTVSPost2010PropOp52
 70
     0
102
RTVSPost2010Prop53
 90
        2
102
RTVSPost2010PropOp53
 70
     1
102
RTVSPost2010Prop54
  1
strokes_ogs.tif
102
RTVSPost2010PropOp54
 70
     1
102
RTVSPost2010Prop55
280
     0
102
RTVSPost2010PropOp55
 70
     1
102
RTVSPost2010Prop56
140
1.0
102
RTVSPost2010PropOp56
 70
     1
102
RTVSPost2010Prop57
140
1.0
102
RTVSPost2010PropOp57
 70
     1
  0
XRECORD
  5
129
102
{ACAD_REACTORS
330
128
102
}
330
128
100
AcDbXrecord
280
     1
102
RTVSPost2010Prop28
280
     0
102
RTVSPost2010PropOp28
 70
     1
102
RTVSPost2010Prop29
280
     1
102
RTVSPost2010PropOp29
 70
     1
102
RTVSPost2010Prop30
280
     1
102
RTVSPost2010PropOp30
 70
     1
102
RTVSPost2010Prop31
280
     0
102
RTVSPost2010PropOp31
 70
     1
102
RTVSPost2010Prop32
280
     0
102
RTVSPost2010PropOp32
 70
     1
102
RTVSPost2010Prop33
280
     0
102
RTVSPost2010PropOp33
 70
     1
102
RTVSPost2010Prop34
280
     0
102
RTVSPost2010PropOp34
 70
     1
102
RTVSPost2010Prop35
280
     0
102
RTVSPost2010PropOp35
 70
     1
102
RTVSPost2010Prop36
280
     0
102
RTVSPost2010PropOp36
 70
     1
102
RTVSPost2010Prop37
 90
       50
102
RTVSPost2010PropOp37
 70
     1
102
RTVSPost2010Prop38
140
0.0
102
RTVSPost2010PropOp38
 70
     1
102
RTVSPost2010Prop39
140
1.0
102
RTVSPost2010PropOp39
 70
     1
102
RTVSPost2010Prop40
 90
        0
102
RTVSPost2010PropOp40
 70
     1
102
RTVSPost2010Prop41ColorIndex
 90
       18
102
RTVSPost2010Prop41ColorRGB
 90
        0
102
RTVSPost2010PropOp41
 70
     1
102
RTVSPost2010Prop42
 90
       50
102
RTVSPost2010PropOp42
 70
     1
102
RTVSPost2010Prop43
 90
        3
102
RTVSPost2010PropOp43
 70
     1
102
RTVSPost2010Prop44ColorIndex
 90
        5
102
RTVSPost2010Prop44ColorRGB
 90
      255
102
RTVSPost2010PropOp44
 70
     1
102
RTVSPost2010Prop45
280
     0
102
RTVSPost2010PropOp45
 70
     1
102
RTVSPost2010Prop46
 90
       50
102
RTVSPost2010PropOp46
 70
     1
102
RTVSPost2010Prop47
 90
       50
102
RTVSPost2010PropOp47
 70
     1
102
RTVSPost2010Prop48
 90
       50
102
RTVSPost2010PropOp48
 70
     1
102
RTVSPost2010Prop49
280
     0
102
RTVSPost2010PropOp49
 70
     1
102
RTVSPost2010Prop50
 90
       50
102
RTVSPost2010PropOp50
 70
     1
102
RTVSPost2010Prop51ColorIndex
 90
      256
102
RTVSPost2010Prop51ColorRGB
 90
-16777216
102
RTVSPost2010PropOp51
 70
     0
102
RTVSPost2010Prop52
140
1.0
102
RTVSPost2010PropOp52
 70
     0
102
RTVSPost2010Prop53
 90
        2
102
RTVSPost2010PropOp53
 70
     1
102
RTVSPost2010Prop54
  1
strokes_ogs.tif
102
RTVSPost2010PropOp54
 70
     1
102
RTVSPost2010Prop55
280
     0
102
RTVSPost2010PropOp55
 70
     1
102
RTVSPost2010Prop56
140
1.0
102
RTVSPost2010PropOp56
 70
     1
102
RTVSPost2010Prop57
140
1.0
102
RTVSPost2010PropOp57
 70
     1
  0
XRECORD
  5
12B
102
{ACAD_REACTORS
330
12A
102
}
330
12A
100
AcDbXrecord
280
     1
102
RTVSPost2010Prop28
280
     0
102
RTVSPost2010PropOp28
 70
     1
102
RTVSPost2010Prop29
280
     1
102
RTVSPost2010PropOp29
 70
     1
102
RTVSPost2010Prop30
280
     1
102
RTVSPost2010PropOp30
 70
     1
102
RTVSPost2010Prop31
280
     0
102
RTVSPost2010PropOp31
 70
     1
102
RTVSPost2010Prop32
280
     0
102
RTVSPost2010PropOp32
 70
     1
102
RTVSPost2010Prop33
280
     0
102
RTVSPost2010PropOp33
 70
     1
102
RTVSPost2010Prop34
280
     0
102
RTVSPost2010PropOp34
 70
     1
102
RTVSPost2010Prop35
280
     0
102
RTVSPost2010PropOp35
 70
     1
102
RTVSPost2010Prop36
280
     0
102
RTVSPost2010PropOp36
 70
     1
102
RTVSPost2010Prop37
 90
       50
102
RTVSPost2010PropOp37
 70
     1
102
RTVSPost2010Prop38
140
0.0
102
RTVSPost2010PropOp38
 70
     1
102
RTVSPost2010Prop39
140
1.0
102
RTVSPost2010PropOp39
 70
     1
102
RTVSPost2010Prop40
 90
        0
102
RTVSPost2010PropOp40
 70
     1
102
RTVSPost2010Prop41ColorIndex
 90
       18
102
RTVSPost2010Prop41ColorRGB
 90
        0
102
RTVSPost2010PropOp41
 70
     1
102
RTVSPost2010Prop42
 90
       50
102
RTVSPost2010PropOp42
 70
     1
102
RTVSPost2010Prop43
 90
        3
102
RTVSPost2010PropOp43
 70
     1
102
RTVSPost2010Prop44ColorIndex
 90
        5
102
RTVSPost2010Prop44ColorRGB
 90
      255
102
RTVSPost2010PropOp44
 70
     1
102
RTVSPost2010Prop45
280
     0
102
RTVSPost2010PropOp45
 70
     1
102
RTVSPost2010Prop46
 90
       50
102
RTVSPost2010PropOp46
 70
     1
102
RTVSPost2010Prop47
 90
       50
102
RTVSPost2010PropOp47
 70
     1
102
RTVSPost2010Prop48
 90
       50
102
RTVSPost2010PropOp48
 70
     1
102
RTVSPost2010Prop49
280
     0
102
RTVSPost2010PropOp49
 70
     1
102
RTVSPost2010Prop50
 90
       50
102
RTVSPost2010PropOp50
 70
     1
102
RTVSPost2010Prop51ColorIndex
 90
      256
102
RTVSPost2010Prop51ColorRGB
 90
-16777216
102
RTVSPost2010PropOp51
 70
     0
102
RTVSPost2010Prop52
140
1.0
102
RTVSPost2010PropOp52
 70
     0
102
RTVSPost2010Prop53
 90
        2
102
RTVSPost2010PropOp53
 70
     1
102
RTVSPost2010Prop54
  1
strokes_ogs.tif
102
RTVSPost2010PropOp54
 70
     1
102
RTVSPost2010Prop55
280
     0
102
RTVSPost2010PropOp55
 70
     1
102
RTVSPost2010Prop56
140
1.0
102
RTVSPost2010PropOp56
 70
     1
102
RTVSPost2010Prop57
140
1.0
102
RTVSPost2010PropOp57
 70
     1
  0
XRECORD
  5
121
102
{ACAD_REACTORS
330
120
102
}
330
120
100
AcDbXrecord
280
     1
102
RTVSPost2010Prop28
280
     0
102
RTVSPost2010PropOp28
 70
     1
102
RTVSPost2010Prop29
280
     1
102
RTVSPost2010PropOp29
 70
     1
102
RTVSPost2010Prop30
280
     1
102
RTVSPost2010PropOp30
 70
     1
102
RTVSPost2010Prop31
280
     0
102
RTVSPost2010PropOp31
 70
     1
102
RTVSPost2010Prop32
280
     0
102
RTVSPost2010PropOp32
 70
     1
102
RTVSPost2010Prop33
280
     0
102
RTVSPost2010PropOp33
 70
     1
102
RTVSPost2010Prop34
280
     0
102
RTVSPost2010PropOp34
 70
     1
102
RTVSPost2010Prop35
280
     0
102
RTVSPost2010PropOp35
 70
     1
102
RTVSPost2010Prop36
280
     0
102
RTVSPost2010PropOp36
 70
     1
102
RTVSPost2010Prop37
 90
       50
102
RTVSPost2010PropOp37
 70
     1
102
RTVSPost2010Prop38
140
0.0
102
RTVSPost2010PropOp38
 70
     1
102
RTVSPost2010Prop39
140
1.0
102
RTVSPost2010PropOp39
 70
     1
102
RTVSPost2010Prop40
 90
        0
102
RTVSPost2010PropOp40
 70
     1
102
RTVSPost2010Prop41ColorIndex
 90
       18
102
RTVSPost2010Prop41ColorRGB
 90
        0
102
RTVSPost2010PropOp41
 70
     1
102
RTVSPost2010Prop42
 90
       50
102
RTVSPost2010PropOp42
 70
     1
102
RTVSPost2010Prop43
 90
        3
102
RTVSPost2010PropOp43
 70
     1
102
RTVSPost2010Prop44ColorIndex
 90
        5
102
RTVSPost2010Prop44ColorRGB
 90
      255
102
RTVSPost2010PropOp44
 70
     1
102
RTVSPost2010Prop45
280
     0
102
RTVSPost2010PropOp45
 70
     1
102
RTVSPost2010Prop46
 90
       50
102
RTVSPost2010PropOp46
 70
     1
102
RTVSPost2010Prop47
 90
       50
102
RTVSPost2010PropOp47
 70
     1
102
RTVSPost2010Prop48
 90
       50
102
RTVSPost2010PropOp48
 70
     1
102
RTVSPost2010Prop49
280
     0
102
RTVSPost2010PropOp49
 70
     1
102
RTVSPost2010Prop50
 90
       50
102
RTVSPost2010PropOp50
 70
     1
102
RTVSPost2010Prop51ColorIndex
 90
      256
102
RTVSPost2010Prop51ColorRGB
 90
-16777216
102
RTVSPost2010PropOp51
 70
     0
102
RTVSPost2010Prop52
140
1.0
102
RTVSPost2010PropOp52
 70
     0
102
RTVSPost2010Prop53
 90
        2
102
RTVSPost2010PropOp53
 70
     1
102
RTVSPost2010Prop54
  1
strokes_ogs.tif
102
RTVSPost2010PropOp54
 70
     1
102
RTVSPost2010Prop55
280
     0
102
RTVSPost2010PropOp55
 70
     1
102
RTVSPost2010Prop56
140
1.0
102
RTVSPost2010PropOp56
 70
     1
102
RTVSPost2010Prop57
140
1.0
102
RTVSPost2010PropOp57
 70
     1
  0
XRECORD
  5
115
102
{ACAD_REACTORS
330
114
102
}
330
114
100
AcDbXrecord
280
     1
102
RTVSPost2010Prop28
280
     0
102
RTVSPost2010PropOp28
 70
     1
102
RTVSPost2010Prop29
280
     1
102
RTVSPost2010PropOp29
 70
     1
102
RTVSPost2010Prop30
280
     1
102
RTVSPost2010PropOp30
 70
     1
102
RTVSPost2010Prop31
280
     0
102
RTVSPost2010PropOp31
 70
     1
102
RTVSPost2010Prop32
280
     0
102
RTVSPost2010PropOp32
 70
     1
102
RTVSPost2010Prop33
280
     0
102
RTVSPost2010PropOp33
 70
     1
102
RTVSPost2010Prop34
280
     0
102
RTVSPost2010PropOp34
 70
     1
102
RTVSPost2010Prop35
280
     0
102
RTVSPost2010PropOp35
 70
     1
102
RTVSPost2010Prop36
280
     0
102
RTVSPost2010PropOp36
 70
     1
102
RTVSPost2010Prop37
 90
       50
102
RTVSPost2010PropOp37
 70
     1
102
RTVSPost2010Prop38
140
0.0
102
RTVSPost2010PropOp38
 70
     1
102
RTVSPost2010Prop39
140
1.0
102
RTVSPost2010PropOp39
 70
     1
102
RTVSPost2010Prop40
 90
        0
102
RTVSPost2010PropOp40
 70
     1
102
RTVSPost2010Prop41ColorIndex
 90
       18
102
RTVSPost2010Prop41ColorRGB
 90
        0
102
RTVSPost2010PropOp41
 70
     1
102
RTVSPost2010Prop42
 90
       50
102
RTVSPost2010PropOp42
 70
     1
102
RTVSPost2010Prop43
 90
        3
102
RTVSPost2010PropOp43
 70
     1
102
RTVSPost2010Prop44ColorIndex
 90
        5
102
RTVSPost2010Prop44ColorRGB
 90
      255
102
RTVSPost2010PropOp44
 70
     1
102
RTVSPost2010Prop45
280
     0
102
RTVSPost2010PropOp45
 70
     1
102
RTVSPost2010Prop46
 90
       50
102
RTVSPost2010PropOp46
 70
     1
102
RTVSPost2010Prop47
 90
       50
102
RTVSPost2010PropOp47
 70
     1
102
RTVSPost2010Prop48
 90
       50
102
RTVSPost2010PropOp48
 70
     1
102
RTVSPost2010Prop49
280
     0
102
RTVSPost2010PropOp49
 70
     1
102
RTVSPost2010Prop50
 90
       50
102
RTVSPost2010PropOp50
 70
     1
102
RTVSPost2010Prop51ColorIndex
 90
      256
102
RTVSPost2010Prop51ColorRGB
 90
-16777216
102
RTVSPost2010PropOp51
 70
     0
102
RTVSPost2010Prop52
140
1.0
102
RTVSPost2010PropOp52
 70
     0
102
RTVSPost2010Prop53
 90
        2
102
RTVSPost2010PropOp53
 70
     1
102
RTVSPost2010Prop54
  1
strokes_ogs.tif
102
RTVSPost2010PropOp54
 70
     1
102
RTVSPost2010Prop55
280
     0
102
RTVSPost2010PropOp55
 70
     1
102
RTVSPost2010Prop56
140
1.0
102
RTVSPost2010PropOp56
 70
     1
102
RTVSPost2010Prop57
140
1.0
102
RTVSPost2010PropOp57
 70
     1
  0
XRECORD
  5
12D
102
{ACAD_REACTORS
330
12C
102
}
330
12C
100
AcDbXrecord
280
     1
102
RTVSPost2010Prop28
280
     0
102
RTVSPost2010PropOp28
 70
     1
102
RTVSPost2010Prop29
280
     1
102
RTVSPost2010PropOp29
 70
     1
102
RTVSPost2010Prop30
280
     1
102
RTVSPost2010PropOp30
 70
     1
102
RTVSPost2010Prop31
280
     0
102
RTVSPost2010PropOp31
 70
     1
102
RTVSPost2010Prop32
280
     0
102
RTVSPost2010PropOp32
 70
     1
102
RTVSPost2010Prop33
280
     0
102
RTVSPost2010PropOp33
 70
     1
102
RTVSPost2010Prop34
280
     0
102
RTVSPost2010PropOp34
 70
     1
102
RTVSPost2010Prop35
280
     0
102
RTVSPost2010PropOp35
 70
     1
102
RTVSPost2010Prop36
280
     0
102
RTVSPost2010PropOp36
 70
     1
102
RTVSPost2010Prop37
 90
       50
102
RTVSPost2010PropOp37
 70
     1
102
RTVSPost2010Prop38
140
0.0
102
RTVSPost2010PropOp38
 70
     1
102
RTVSPost2010Prop39
140
1.0
102
RTVSPost2010PropOp39
 70
     1
102
RTVSPost2010Prop40
 90
        0
102
RTVSPost2010PropOp40
 70
     1
102
RTVSPost2010Prop41ColorIndex
 90
       18
102
RTVSPost2010Prop41ColorRGB
 90
        0
102
RTVSPost2010PropOp41
 70
     1
102
RTVSPost2010Prop42
 90
       50
102
RTVSPost2010PropOp42
 70
     1
102
RTVSPost2010Prop43
 90
        3
102
RTVSPost2010PropOp43
 70
     1
102
RTVSPost2010Prop44ColorIndex
 90
        5
102
RTVSPost2010Prop44ColorRGB
 90
      255
102
RTVSPost2010PropOp44
 70
     1
102
RTVSPost2010Prop45
280
     0
102
RTVSPost2010PropOp45
 70
     1
102
RTVSPost2010Prop46
 90
       50
102
RTVSPost2010PropOp46
 70
     1
102
RTVSPost2010Prop47
 90
       50
102
RTVSPost2010PropOp47
 70
     1
102
RTVSPost2010Prop48
 90
       50
102
RTVSPost2010PropOp48
 70
     1
102
RTVSPost2010Prop49
280
     0
102
RTVSPost2010PropOp49
 70
     1
102
RTVSPost2010Prop50
 90
       50
102
RTVSPost2010PropOp50
 70
     1
102
RTVSPost2010Prop51ColorIndex
 90
      256
102
RTVSPost2010Prop51ColorRGB
 90
-16777216
102
RTVSPost2010PropOp51
 70
     0
102
RTVSPost2010Prop52
140
1.0
102
RTVSPost2010PropOp52
 70
     0
102
RTVSPost2010Prop53
 90
        2
102
RTVSPost2010PropOp53
 70
     1
102
RTVSPost2010Prop54
  1
strokes_ogs.tif
102
RTVSPost2010PropOp54
 70
     1
102
RTVSPost2010Prop55
280
     0
102
RTVSPost2010PropOp55
 70
     1
102
RTVSPost2010Prop56
140
1.0
102
RTVSPost2010PropOp56
 70
     1
102
RTVSPost2010Prop57
140
1.0
102
RTVSPost2010PropOp57
 70
     1
  0
ENDSEC
  0
EOF
